Song name
# A B C D E F G H I J K L M N O P Q R S T U V W X Y Z

The Cribs - Save Your Secrets tab

Great song from the new album Ignore the Ignorant
I think Gary might play guitar on this instead of Ryan because
they swap places live, but I'm not 100% sure...

Guitar 1 - A Jarman (Gary?)

Capo on 5, all tabbed relative to Capo :)

Intro - Strum softly and smoothly
e|0-00-00-0-00-00-|1-11-11-3-33-33-|
B|1-11-11-1-11-11-|1-11-11-0-00-00-|
G|0-00-00-2-22-22-|2-22-22-0-00-00-|
D|2-22-22-2-22-22-|3-33-33-0-00-00-|
A|3-33-33-0-00-00-|3-33-33-2-22-22-|
E|--this-part-x3--|1-11-11-3-33-33-|

Chorus "You...are...far more likely to"
e|1-11-1111-11-111-1-11-1113-33-333-|
B|1-11-1111-11-111-1-11-1110-00-000-|
G|2-22-2222-22-222-2-22-2220-00-000-|
D|2-22-2222-22-222-3-33-3330-00-000-|
A|0-00-0000-00-000-3-33-3332-22-222-|
E|-----------------1-11-1113-33-333-|

"Be devoured"
e|0-00-00-0000-3333-|
B|1-11-11-1111-0000-|
G|2-22-22-2222-0000-|
D|2-22-22-2222-0000-|
A|0-00-00-0000-2222-|
E|-------------3333-|

"Than empowered........by youuuuu"
e|0-00-0000-00-000-1-11-1-111-1-11-1-111-|
B|1-11-1111-11-111-3-33-3-333-1-11-1-111-|
G|0-00-0000-00-000-2-22-2-222-2-22-2-222-|
D|2-22-2222-22-222-0-00-0-000-3-33-3-333-|
A|3-33-3333-33-333------------3-33-3-333-|
E|----------------------------1-11-1-111-|

"uuur sense of romance"
e|0-00-00-0000-3333-|
B|1-11-11-1111-0000-|
G|2-22-22-2222-0000-|
D|2-22-22-2222-0000-|
A|0-00-00-0000-2222-|
E|-------------3333-|

Verse - Play Intro Riff twice

Chorus

Verse - Intro Twice

Bridge - Sit Out

Intro (Pick out chords quietly in background)

Outro
e|0-000-000-0-000-000-|
B|1-111-111-1-111-111-|
G|0-000-000-2-222-222-|
D|2-222-222-2-222-222-|
A|3-333-333-0-000-000-|
E|--------------------|

Guitar 2 - Johnny Marr

Capo on 5, tabbed relative to Capo

I'm not so sure on the Chorus

Intro
e|----0------------|----0----------------|----0----------|------------0~--|
B|1-3---1-0--0----0|1-3---1-0-0h1p0-----0|1-3---1-0-0~---|1-0----01-3-----|
G|-0---0--------2--|-0---0-----------2---|-0---0------2~-|----2----0------|
D|---------------2-|-------------------2-|---------------|-----2----------|
A|-----------------|---------------------|---------------|----------------|
E|-----------------|---------------------|---------------|----------------|

Chorus
e|0-000-00000-0-000-00000-0--0--0--0---0-00000-00----|
B|1-111-00001-1-111-00001---1--1--1-1--1-11001-11-00-|
G|2-222-22222-2-222-22222--2--2--2---2-2-22222-22-00-|
D|------------------------------------------------00-|
A|---------------------------------------------------|
E|---------------------------------------------------|

e|0-000-000-0-000-000-1-111-111-0--0---0-0000-00-33-|
B|1-111-111-1-111-111-1-111-111---1-1--1-1111-11-00-|
G|0-000-000-0-000-000-2-222-222--2---2-2-2222-22-00-|
D|-----------------------------------------------00-|
A|--------------------------------------------------|
E|--------------------------------------------------|

Verse - He messes around with this kind of thing :)
e|----0---------|----0------------|----0---------|-----------0--|
B|1-3---1-0~-1~-|1-3---1-0-0h1-0~-|1-3---1-0-----|---1--------0-|
G|-0---0--------|-0---0-----------|-0---0-----2--|--2-2---------|
D|--------------|-----------------|------------2-|-2---2----0---|
A|--------------|-----------------|--------------|0-----0--0----|
E|--------------|-----------------|--------------|--------3-----|

Chorus again

Verse again

Bridge
e|----------------------------------|
B|----------------------------------|
G|444-5-77-444-5-77-9999\44-999-7-5-|
D|xxx-x-xx-xxx-x-xx-xxxx\xx-xxx-x-x-|
A|222-3-55-222-3-55-7777\22-777-5-3-|
E|----------------------------------|

e|----------------------------------|
B|----------------------------------|
G|444-5-77-444-5-77-5555-55-4444-44-|
D|xxx-x-xx-xxx-x-xx-xxxx-xx-xxxx-xx-|
A|222-3-55-222-3-55-3333-33-2222-22-|
E|----------------------------------|

e|----------------------------------|
B|----------------------------------|
G|444-5-77-444-5-77-9999\44-999-7-5-|
D|xxx-x-xx-xxx-x-xx-xxxx\xx-xxx-x-x-|
A|222-3-55-222-3-55-7777\22-777-5-3-|
E|----------------------------------|

e|-----------------------------------|
B|-----------------------------------|
G|4444444444444444-555-7-55-9999\-44-|
D|xxxxxxxxxxxxxxxx-xxx-x-xx-xxxx\-xx-|
A|2222222222222222-333-5-33-7777\-22-|
E|-----------------------------------|

Intro

Outro
e|----0----------|-----0----------3-0---|
B|1-3---1-0--0---|01-3---1-0--0h1-----0-|
G|-0---0------2--|--0---0---------------|
D|-------------2-|----------------------|
A|---------------|----------------------|
E|---------------|----------------------|
Tap to rate this tab
 
# A B C D E F G H I J K L M N O P Q R S T U V W X Y Z