Song name
# A B C D E F G H I J K L M N O P Q R S T U V W X Y Z

The Cribs - Stick To Yr Guns tab

Tuning: DADF#BE (this is one way of playing it, and not the way they actually do (the third fret
on the F# string is an open string in the recording. if anyone can work out the 
actual tuning used 
then please tell me)

-------3-----|-------3-----|-----0---0---|-----0---0---|
---5-----5---|---5-----5---|---0-------0-|---0-------0-|
-----3-------|-----3-------|-------3-----|-------3-----|
-------------|-------------|-------------|-------------|
-3---------3-|-3---------3-|-------------|-------------|
-------------|-------------|-5-----------|-5-----------|  x2

-----0---0---|-----0---0---|-------3-----|-----0---0---|
---1---------|---1---------|---5-----5---|---0-------0-|
-------3-----|-------3-----|-----3-----3-|-------3-----|
-3---------3-|-3---------3-|-------------|-------------|
-------------|-------------|-3-----------|-------------|
-------------|-------------|-------------|-5-----------|  x2

-------0-----|-------0-----|-------------|---------3---|
-------------|-------------|-----3---0---|-4-4---5---5-|
-------------|-------------|-------3---3-|-3-3-3-3-----|
---3-------3-|---3-------3-|---5---------|-3-3---5-----|
-----5---5---|-----5---5---|-------------|-------------|
-0-----------|-0-----------|-5-----------|-------------|

Tap to rate this tab
# A B C D E F G H I J K L M N O P Q R S T U V W X Y Z