Song name
# A B C D E F G H I J K L M N O P Q R S T U V W X Y Z

The Cribs - We Were Aborted tab

This is my "camp fire" version of the song. Enjoy.

INTRO
--------------------------------------------|
-33--2-3-2-3-2-222--33-22--3-2-3-2-222------|
-44--3-4-4-4-4-222--00-00--0-0-0-0-222------|
-44--3-4-4-4-4-222--00-00--0-0-0-0-222------|
-22--2-2-2-2-2-000--xx-xx--x-x-x-x-000------|
--------------------33-33--3-3-3-3----------|

 DU  D D D D D DUD  DU DU  D D D D DUD

--------------------------------------------|
-33--2-3-2-3-2-222--33-22-33-22-3-----------|
-44--3-4-4-4-4-222--00-00-00-00-0-----------|
-44--3-4-4-4-4-222--00-00-00-00-0-----------|
-22--2-2-2-2-2-000--xx-xx-xx-xx-x-----------|
--------------------33-33-33-33-3-----------|

 DU  D D D D D DUD  DU DU DU DU D


VERSE
------2----3----0------|
-3----3----3----2------|
-4----2----0----2------|
-4----0----0----2------|
-2---------2----0------|
-----------3-----------|
 Bm   D    G    A


CHORUS

-2-----3---0-------2-----3---0----------------|
-3-----3---2-------3-----3---2----------------|
-2-----0---2-------2-----0---2----------------|
-0-----0---2-------0-----0---2----------------|
-------2---0-------------2---0---0-0-0-0-0-0--|
-------3-----------------3--------------------|
 D     G   A       D     G   A


BRIDGE A
------------------------|
-33--2-3-2-3-2-222------|
-44--3-4-4-4-4-222------|
-44--3-4-4-4-4-222------|
-22--2-2-2-2-2-000------|
------------------------|

BRIDGE B
----------------------------------|
----------------------------------|
----------------------------------|
------4444------7777--------------|
-2222------5555-------------------|
---------------------77777777-----|

SOLO
------------------|
-3----3-----------|
-4----0-----------|
-4----0-----------|
-2----x-----------|
------3-----------|

INTRO
VERSE
CHORUS
BRIDGE A
VERSE
CHORUS
BRIDGE B
SOLO
VERSE
CHORUS
BRIDGE B


allenmanbear@yahoo.com
Tap to rate this tab
# A B C D E F G H I J K L M N O P Q R S T U V W X Y Z