Song name
# A B C D E F G H I J K L M N O P Q R S T U V W X Y Z

The Cribs - We Share The Same Skies tab


INTRO

---|------------------------------------------------------------|
---|------------------------------------------------------------|
---|6---8--------6---8------6---------3---3---3/6-----4/6-8-----|
-6-|--6---9----6---6---9--6---5-----4---4---4-----9-------------|
---|------------------------------------------------------------|
---|------------------------------------------------------------|


---------------------------------------------------------------|
---------------------------------------------------------------|
---6--8---------6---8------6---------3---3---3/6------4/6-8----|
-6------9-----6---6---9--6---6-----4---4---4-----9-------------|
---------------------------------------------------------------|
---------------------------------------------------------------|

---------------------------------------------------------------|
---------------------------------------------------------------|
---6--8------6---8-----8b9b8------3---3----3/6-----------------|
-6------9--6---6---9--------9---4---4---4------9-99-9----------|
---------------------------------------------------------------|
---------------------------------------------------------------|

C#m        F#        G#m
A strange union the other day

C#m          F#           D#m    G#m
It's a dead Russian, the papers say

C#m             F#           B  F# G#m
But it would be nice if they realised

C#m       F#      *see below*
That she thought 'he is mine'


--44--222-4--444444----------|
--44--444-4--444444----------|
--44--444-4--444444----------|
--44---------444444----------|
-----------------------------|
-----------------------------|


E                                F#
This town has got you down and I know
G#m
I was helping you out

E                                                F#
While your hope died under northern skies and it shows

G#m                  E
I was helping you to realise

    F#     G#m         E
The reason why, it was no surprise

F#         G#m
No way


C#m          F#      G#m
The act will pass by no-one

        C#m    F#           D#m       G#m
And I'm sad to say it's not different today

   C#m       F#              B  F# G#m
Be comforted by we share the same skies

        C#m  F#  *see below*
And for once pay no mind

--44--222-4--444444----------|
--44--444-4--444444----------|
--44--444-4--444444----------|
--44---------444444----------|
-----------------------------|
-----------------------------|


E                                 F#
I have decided it's best that you know

G#m
I'm still thinking about

E                                  F#
Old lies as north-west skies grow cold

G#m
No point in denying

E              F#   G#m           E
Anxiety was my favourite feeling after jealousy
F#          G#m
Yeah, I'll concede

E
That I could not
G#m
I could not
E             F#
be as nervous as I was
E
I could not
G#m
I could not

*see below*
no way


------------------------------------------------------------|
--------------------------------------------------11b-------|
--99--888--99-888---11-11---11-11-11-11-11--------11b-------|
---------------------------------------------strum and bend-|
--77--666--77-666---9--9----9--9--9--9--9-------------------|
------------------------------------------------------------|


Repeat Chorus
Tap to rate this tab
 
# A B C D E F G H I J K L M N O P Q R S T U V W X Y Z