Song name
# A B C D E F G H I J K L M N O P Q R S T U V W X Y Z

The Cribs - We Share The Same Skies tab

A great song needs a great tab.

INTRO:

e|--------------------------------------------|--------------------------|
B|----------------0------0------------0--0----|--------------------------|
G|-----------8-------------------8------------|---------6-------6--8-----|X2
D|-----11------------------11-----------9-\8--|--8--8-----9---9----------|
A|--11----11---11-----11------11---11---11\9--|---9--9-------------------|
E|--------------------------------------------|--------------------------|
              variation on bend: v
e|--------------------------------------------|--------------------------|
B|----------------0------0---------------0----|--------------------------|
G|-----------8-------------------8^(9)--------|---------6-------6--8-----|
D|-----11------------------11-----------9-\8--|--8--8-----9---9----------|
A|--11----11---11-----11------11--------11\9--|---9--9-------------------|
E|--------------------------------------------|--------------------------|

VERSE:

From: 'A strange union...'
 | C#m    D#7    G#m    G#m    |   C#m    D#7    D#7    G#m    |
e|--4------x------4------------|-------------------------------|
B|--5------4------4------------|-------------------------------|
G|--6------6------4------------|-------------------------------|
D|--6------5------6------------|-------------------------------|
A|--4------6------6------------|-------------------------------|
E|--x------x------4------------|-------------------------------|

From: 'But it would be nice...'
 | C#m    D#7    G#m    E      |  C#m    C#m    G#m / F#    B
e|-----------------------------|-----------------4----2-------------------|
B|--------------4--------------|---------4-4-----4----2-----4-4-4-4-4-4-4-|
G|------------------6--6-4---4-|-------4---------4----3-----4-4-4-4-4-4-4-|
D|-------------------------6---|-6-6-6----------------------4-4-4-4-4-4-4-|
A|-----------------------------|------------------------------------------|
E|-----------------------------|------------------------------------------|
               Watch out for Johnny Marr's fills ^

CHORUS:
From: 'This town has got you down...'
Just play the intro a bunch of times.

VERSE:
From: 'The act will pass...'
Same as last time..

CHORUS:
From: 'I have decided it's best...'
Saaaaaaaaaame as before.

BRIDGE:
From: 'I could not...'
 | E7                     |  G#m
e|-0----------------------|---4-------------------------|
B|-0-----4----------------|---4------4------------------|
G|-1-----4---6-4------4---|---4------4---6-4------4-----|
D|-0-----6--------6-6---6-|---6------6--------6-6----6--|
A|-2----------------------|---6-------------------------|
E|-0---0------------------|---4--4----------------------|

 | E7                     |  F13 (This chord is fucking wierd)
e|------------------------|---2-----------9-------------|
B|-------4-----7---5------|---4-------------7-7-7-7-7-7-|
G|-------4------------6---|---3-------------------------|
D|-------6---4------------|---2-------------------------|
A|------------------------|---4-------------------------|
E|-----0------------------|---2-------------------------|

From: 'I could not...'
 | E7                     |  G#m
e|-0----------------------|---4-------------------------|
B|-0-----4----------------|---4------4------------------|
G|-1-----4---6-4------4---|---4------4---6-4------4-----|
D|-0-----6--------6-6---6-|---6------6--------6-6----6--|
A|-2----------------------|---6-------------------------|
E|-0---0------------------|---4--4----------------------|

 |  A    E      A     E     |  F#        v Shut up here.
e|--------------------------|--2--------------------------|
B|--------------------------|--2-----------7^7^7^7^7^7^7^-|
G|--2-2--1-1-1--2--2--1-1-1-|--3-----------6^6^6^6^6^6^6^-|
D|--2-2--2-2-2--2--2--2-2-2-|--4--------------------------|
A|--0-0--2-2-2--0--0--2-2-2-|--4--------------------------|
E|--------------------------|--2--------------------------|

CHORUS:
From: 'This town...'
Same as before.
Then play the first half of CHORUS once more.

END:
 |  G#m              |
e|---4-4-4-4-4-------|
B|---4-4-4-4-4-------|
G|---4-4-4-4-4-------|
D|---6-6-6-6-6-------|
A|---6-6-6-6-6-------|
E|---4-4-4-4-4-------|

Obviously this aint ALL my work, so thanks to my guitar teacher, John Activekids.

Mr Morley is innocent.

Tap to rate this tab
 
# A B C D E F G H I J K L M N O P Q R S T U V W X Y Z