Song name
# A B C D E F G H I J K L M N O P Q R S T U V W X Y Z

The Cribs - Our Bovine Public tab

There's already a pretty accurate version of the main riff played throughout the verses
intro, if you look around the comments for the other versions of this song, so I'm not
to tab that, just the chorus and bridge. Also if a note has this "~" beside it, it means 
pick it.

Tabbed by: Carl E

Tuning: Standard

Chorus
e|--11-11-12-14-11-11-12-14-11--9---11-11-12-14-11-11----14-11-9-------------|
B|---9--9--9--9--9--9--9--9--9--9---11-11-11-11-11-11-14-11-11-9-------------|
G|----------------------------------------------------11---------------------|
D|---------------------------------------------------------------------------|
A|---------------------------------------------------------------------------|
E|---------------------------------------------------------------------------|

Bridge
e|-7-----11-11-11-9---9-9-7-9s11---------11--7--1s7--1s7---------------------|
B|-7-----11-11-11-9---7-7-7-7s11--11-11--11--7-------------------------------|
G|--------------------------------11-11--------------------------------------|
D|---------------------------------------------------------------------------|
A|---------------------------------------------------------------------------|
E|---------------------------------------------------------------------------|

e|-11-11-11-12-14---11~-9~~~-11~-12~-14~--------------11~--------11--7s117s11|
B|-11-------------------------------------14~~~-12~-14~----11~-12--12--------|
G|---------------------------------------------------------------------------|
D|---------------------------------------------------------------------------|
A|---------------------------------------------------------------------------|
E|---------------------------------------------------------------------------|
Tap to rate this tab
# A B C D E F G H I J K L M N O P Q R S T U V W X Y Z