Song name
# A B C D E F G H I J K L M N O P Q R S T U V W X Y Z

The Cribs - Shoot The Poets tab

Really weird tuning. This is how Jarman plays it live and on the record.

Intro/Verses

C#|-----0-----------0--------0--------------0--------0--------0--------0--|
A#|--------2-----------2--------2-----2--------2--------2--------2--------|
F |-----------0-----------0--------0--------------0--------0--------0-----|
C#|--0-----------0--------------------------------------------------------|
G#|--------------------------------------2--------------------------------|
D#|-----------------------------------------------------------------------|

C#|-----0-----------0-----0-----------|
A#|--------2-----------------2-----2--|
F |-----------0-----------------0-----|
C#|--------------0--------------------|
G#|--------------------0--------------|
D#|--3--------------------------------|
Repeat

Chorus'
C#|-----0-----------0-----0-----------0-----0-----------0-----0-----------0--|
A#|--------2-----------------2-----------------2-----------------2-----------|
F |-----------0-----------------0-----------------0-----------------0--------|
C#|--------------0-----------------0-----------------0-----------------0-----|
G#|--2-----------------1-----------------0-----------------------------------|
D#|--------------------------------------------------------4-----------------|

But Baby...etc     I left my heart.....
C#|------------------------------|
A#|------------------2--3--2--3--|
F |--1---------------3--3--------|
C#|--0---------------2--2--------|
G#|--2---------------0--0--------|
D#|--3---------------------------|

Solo will come shortly. really late right now.
Thanks
Tap to rate this tab
 
# A B C D E F G H I J K L M N O P Q R S T U V W X Y Z