Song name
# A B C D E F G H I J K L M N O P Q R S T U V W X Y Z

The Cribs - Im A Realist tab

e/-----------------------------------------------------------------|
b/-------------7-7-------5-5-5-----7-7-7-----------------7-5-------|
g/-------6-6-6-----6-6-6-------6-6-------6-6-6---------------------|
d/-7-7-7---------------------------------------7-7-6-6-6-----------|      INTRO
a/-----------------------------------------------------------------|
e/-----------------------------------------------------------------|

e/-----------------------------------------------------------------------|
b/-----------------------------------------------------------------------|
g/---------6---------6-----------------------------6-6-7-----------------|
d/-7s9-7-9---9-9-7-9---7-7-7-7-6-6-7-7-7-7-6-6-5-----------------------9-|
a/-----------------------------------------------9-------9-9-9-9-9-7-7---|
e/-----------------------------------------------------------------------|

e/-----------------|
b/-----------------|
g/-6---------------|
d/---9-9-9-7-------|      2nd PHASE
a/-----------------|
e/-----------------|
Tap to rate this tab
 
# A B C D E F G H I J K L M N O P Q R S T U V W X Y Z