Song name
# A B C D E F G H I J K L M N O P Q R S T U V W X Y Z

The Cribs - Im A Realist tab

----------------------------------------------------------------------------
			     I'M A REALIST - The Cribs
----------------------------------------------------------------------------
Tabbed by: Michael Gillan

Tuning:


 e|------------2-2-------0-0-0-----2-2-2-----------------2---0--------------|
 B|------2-2-2-----2-2-2-------2-2-------2-2-2------------------------------|
 G|2-2-2---------------------------------------2-2-1-1-1---1----------------|
 D|-------------------------------------------------------------------------|
 A|-------------------------------------------------------------------------|
 E|-------------------------------------------------------------------------|
PM|* * * * * *     * * * * * * * *       * * * * * * * *

 e|------------2-2-------0-0-0-----2-2-2-----------------2---0---------------|
 B|------2-2-2-----2-2-2-------2-2-------2-2-2-------------------------------|
 G|2-2-2---------------------------------------2-2-1-1-1---1-----------------|
 D|--------------------------------------------------------------------------|
 A|--------------------------------------------------------------------------|
 E|--------------------------------------------------------------------------|
PM|

 e|------------2-2-------0-0-0-----2-2-2-----------------2---0--------------|
 B|------2-2-2-----2-2-2-------2-2-------2-2-2------------------------------|
 G|2-2-2---------------------------------------2-2-1-1-1---1----------------|
 D|-------------------------------------------------------------------------|
 A|-------------------------------------------------------------------------|
 E|-------------------------------------------------------------------------|
PM|

************************************

| /   slide up
| \   slide down
| h   hammer-on
| p   pull-off
| ~   vibrato
| +   harmonic
| x   Mute note
| b   Bend
| pb  Pre-bend
| br  Bend release
| pbr Pre-bend release
| brb Bend release bend

************************************
Tap to rate this tab
# A B C D E F G H I J K L M N O P Q R S T U V W X Y Z