Song name
# A B C D E F G H I J K L M N O P Q R S T U V W X Y Z

The Cribs - Pure O tab

This is the main riff for the song "Pure O" from The Cribs' new album "In the Belly of a 
Brazen Bull" Im not too sure on the second part but just use it as a template and mess 
about with it! :)
Also, you can give me feedback by Emailing me at: billy.isles@yahoo.co.uk


E------------------------------------------------------------------------|
B----------------4--------7---4-----4--------------------4----7---4------|
G-----4------6--------4----------6------------4-----6----------------6---|  X2
D------------------------------------------------------------------------|
A------------------------------------------------------------------------|
E------------------------------------------------------------------------|


Then i think it goes something along the lines of..

E---------------------------------------------------------------------|
B---------------17--------------17------------------------------------|
G-----14h17--------------14h17------------14h17-----17----------------|
D---------------------------------------------------------------------|
A---------------------------------------------------------------------|
E---------------------------------------------------------------------|

E-----------------------------------------------------------------------|
B---------------17--------------17----------------17----17---18---17----|
G-----14h17--------------14h17------------14h17----------------------16-|
D-----------------------------------------------------------------------|
A-----------------------------------------------------------------------|
E-----------------------------------------------------------------------|

Thanks! Comments and corrections welcome!
Tap to rate this tab
# A B C D E F G H I J K L M N O P Q R S T U V W X Y Z