Song name
# A B C D E F G H I J K L M N O P Q R S T U V W X Y Z

The Cribs - We Were Aborted tab

INTRO

Guitar I: Johnny Marr
   Bm             A      G              A  
|--2-2-2-2-2-2-2------------------------------|
|--3-3-3-3-3-3-3--2-2-2--3-3-2-3-2-3-2--2-2-2-|
|--4-4-4-4-4-4-4--2-2-2--0-0-0-0-0-0-0--2-2-2-|
|--4-4-4-4-4-4-4--2-2-2--0-0-0-0-0-0-0--2-2-2-|
|--2-2-2-2-2-2-2--0-0-0-----------------0-0-0-|
|------------------------3-3-3-3-3-3-3--------|

Guitar II: Ryan Jarman
   Bm                    A         G                     A
|-------------------------------------------------------------------|
|--12-12-12-12-12-12-12--10-10-10--10-10-10-10-10-10-10--10-10-10---|
|--11-11-11-11-11-11-11--11-11-11--12-12-12-12-12-12-12--11-11-11---|
|--12-12-12-12-12-12-12--12-12-12--12-12-12-12-12-12-12--12-12-12---|
|-------------------------------------------------------------------|
|-------------------------------------------------------------------|

VERSE:

Guitar I: Johnny Marr
   Bm        D           G         A
|------------2-----2-----------------------|
|--3---3-----3---3---3---3---3-2---2-2-----|
|--4-----4---2---------2-0-------0-2---2---|
|--4-------4-0-0---------0---------2-----2-|
|--2-2-----------------------------0-------|
|------------------------3-3---------------|

Guitar II: Ryan Jarman(listen closely for the strumming pattern)
   Bm                             D
|---------------------------------------------------------------|
|--12-12-12-12-12-12-12-12-12-12--15-15-15-15-15-15-15-15-15-15-|
|--11-11-11-11-11-11-11-11-11-11--11-11-11-11-11-11-11-11-11-11-|
|--12-12-12-12-12-12-12-12-12-12--12-12-12-12-12-12-12-12-12-12-|
|---------------------------------------------------------------|
|---------------------------------------------------------------|
   G                              A
|---------------------------------------------------------------|
|--10-10-10-10-10-10-10-10-10-10--10-10-10-10-10-10-10-10-10-10-|
|--12-12-12-12-12-12-12-12-12-12--11-11-11-11-11-11-11-11-11-11-|
|--12-12-12-12-12-12-12-12-12-12--12-12-12-12-12-12-12-12-12-12-|
|---------------------------------------------------------------|
|---------------------------------------------------------------|

   Bm                             D
|---------------------------------------------------------------|
|--12-12-12-12-12-12-12-12-12-12--15-15-15-15-15-15-15-15-15-15-|
|--11-11-11-11-11-11-11-11-11-11--11-11-11-11-11-11-11-11-11-11-|
|--12-12-12-12-12-12-12-12-12-12--12-12-12-12-12-12-12-12-12-12-|
|---------------------------------------------------------------|
|---------------------------------------------------------------|
   G                              A
|-------------------------------------------------------------------------|
|--10-10-10-10-10-10-10-10-10-10---------10--------10--------10--------10-|
|--12-12-12-12-12-12-12-12-12-12--11b12-----11b12-----11b12-----11b12-----|
|--12-12-12-12-12-12-12-12-12-12------------------------------------------|
|-------------------------------------------------------------------------|
|-------------------------------------------------------------------------|

CHORUS

Guitar I: Johnny Marr(can't figure it out exactly, but this is close enough)
   D           G   A 
|------------------------------------|
|--7-7-7-7-7-7-----------------------|
|--------------4-4-6-6-6-6-6-6-6-6---|
|--7-7-7-7-7-7-----------------------|
|--5-5-5-5-5-5-5-5-7-7-7-7-7-7-7-7---|
|--------------3-3-5-5-5-5-5-5-5-5---|
   D           G   A
|------------------------------------------|
|--7-7-7-7-7-7-----------------------------|
|--------------4-4-6-6-6-6-6-6-------------|
|--7-7-7-7-7-7-----------------------------|
|--5-5-5-5-5-5-5-5-7-7-7-7-7-7-0-0-0-0-0-0-|
|--------------3-3-5-5-5-5-5-5-------------|

Guitar II: Ryan Jarman
   D                 G     A      
|-----------------------------------------------------|
|-------------------------------------10--------------|
|--11-11-9-11-9-11-9----10-11-11-9-11----11-11-9----9-|
|--------------------12--------------------------12---|
|-----------------------------------------------------|
|-----------------------------------------------------|

   D                 G    A
|------------------------------------------------------|
|------------------------------------10----------------|
|--11-11-9-11-9-11-9----9-11-11-9-11----11-------------|
|--------------------12--------------------------------|
|------------------------------------------0-0-0-0-0-0-|
|------------------------------------------------------|

PRE-VERSE

Guitar I: Johnny Marr
  Bm             A
|----------------------|
|--3-3-3-3-3-3-3-2-2-2-|
|--4-4-4-4-4-4-4-2-2-2-|
|--4-4-4-4-4-4-4-2-2-2-|
|--2-2-2-2-2-2-2-0-0-0-|
|----------------------|

VERSE
CHORUS 2x

BRIDGE
Guitars I & II
|--------------------------------------------------|
|--------------------------------------------------|
|--------------------------------------------------|
|--------------------------7-7-7-7-----------------|
|----------9-9-9-9-5-5-5-5-------------------------|
|--7-7-7-7-------------------------7-7-7-7-7-7-7-7-|

SOLO
Guitar I: Johnny Marr
|------------------------------------------------|
|------------------------------------------------|
|--6b7--4-4-4-4-4-4-4-4-4-6b7--4-4-4-4-4-4-4-4-4-|
|------------------------------------------------|
|------------------------------------------------|
|------------------------------------------------|

|--------------------------------------------------|
|--------------------------------------------------|
|--6-6-6-----------------2-------------------------|
|--------4-4-4-4-4-4-2h4---4-4-4-4-4-4-0-0-0-0-0-0-|
|--------------------------------------------------|
|--------------------------------------------------|

   Bm        D           G         A
|--------------2~---2-2---------------------------|
|--3~----3-----3~-------3---3~----3-2---2~--------|
|--4~------4---2~---------2-0~--------0-2~--------|
|--4~--------4-0~-0---------0~----------2~--------|
|--2~--2--------------------------------0~--------|
|---------------------------3~-3------------------|

Guitar II: Ryan Jarman

|-------------------------------------------------------------------|
|--12-12-12-12-12-12-12--10-10-10--10-10-10-10-10-10-10--10-10-10---|
|--11-11-11-11-11-11-11--11-11-11--12-12-12-12-12-12-12--11-11-11---|
|--12-12-12-12-12-12-12--12-12-12--12-12-12-12-12-12-12--12-12-12---|
|-------------------------------------------------------------------|
|-------------------------------------------------------------------|

|-------------------------------------------------------------------|
|--12-12-12-12-12-12-12--10-10-10--10-10-10-10-10-10-10--10-10-10---|
|--11-11-11-11-11-11-11--11-11-11--12-12-12-12-12-12-12--11-11-11---|
|--12-12-12-12-12-12-12--12-12-12--12-12-12-12-12-12-12--12-12-12---|
|-------------------------------------------------------------------|
|-------------------------------------------------------------------|

   Bm                             D
|---------------------------------------------------------------|
|--12-12-12-12-12-12-12-12-12-12--15-15-15-15-15-15-15-15-15-15-|
|--11-11-11-11-11-11-11-11-11-11--11-11-11-11-11-11-11-11-11-11-|
|--12-12-12-12-12-12-12-12-12-12--12-12-12-12-12-12-12-12-12-12-|
|---------------------------------------------------------------|
|---------------------------------------------------------------|
   G                              A
|---------------------------------------------------------------|
|--10-10-10-10-10-10-10-10-10-10--10-10-10-10-10-10-10-10-10-10-|
|--12-12-12-12-12-12-12-12-12-12--11-11-11-11-11-11-11-11-11-11-|
|--12-12-12-12-12-12-12-12-12-12--12-12-12-12-12-12-12-12-12-12-|
|---------------------------------------------------------------|
|---------------------------------------------------------------|

VERSE

FINAL CHORUS

Guitar I: Johnny Marr(same chords, listen for the faster strumming pattern)
   D           G   A 
|------------------------------------|
|--7-7-7-7-7-7-----------------------|
|--------------4-4-6-6-6-6-6-6-6-6---|
|--7-7-7-7-7-7-----------------------|
|--5-5-5-5-5-5-5-5-7-7-7-7-7-7-7-7---|
|--------------3-3-5-5-5-5-5-5-5-5---|
   D           G   A
|------------------------------------------|
|--7-7-7-7-7-7-----------------------------|
|--------------4-4-6-6-6-6-6-6-------------|
|--7-7-7-7-7-7-----------------------------|
|--5-5-5-5-5-5-5-5-7-7-7-7-7-7-0-0-0-0-0-0-|
|--------------3-3-5-5-5-5-5-5-------------|

Guitar II: Ryan Jarman
|----------------------------------------|
|----------------------------------------|
|--11-11-9-9-11-11-9-9-11-11-9-9-------9-|
|--------------------------------12-12---|
|----------------------------------------|
|----------------------------------------|

|---------------------------------------|
|------------------10-------------------|
|--11-11-9-9-11-11----11-11-9-9-------9-|
|-------------------------------12-12---|
|---------------------------------------|
|---------------------------------------|

|----------------------------------------|
|----------------------------------------|
|--11-11-9-9-11-11-9-9-11-11-9-9-------9-|
|--------------------------------12-12---|
|----------------------------------------|
|----------------------------------------|

|------------------------------------|
|------------------10----------------|
|--11-11-9-9-11-11----11-------------|
|------------------------------------|
|------------------------0-0-0-0-0-0-|
|------------------------------------|

BRIDGE

Guitars I & II

|--------------------------------------------------|
|--------------------------------------------------|
|--------------------------------------------------|
|--------------------------7-7-7-7-----------------|
|----------9-9-9-9-5-5-5-5-------------------------|
|--7-7-7-7-------------------------7-7-7-7-7-7-7-7-|
Tap to rate this tab
# A B C D E F G H I J K L M N O P Q R S T U V W X Y Z