Song name
# A B C D E F G H I J K L M N O P Q R S T U V W X Y Z

The Cribs - Leather Jacket Love Song tab

-------------------------------------------------------------------------------
                             Leather Jacket love song  the Cribs (INTRO)
-------------------------------------------------------------------------------
Tabbed by: Mickeyf15

Such a good song, sums up their whole career

Let notes ring

e|------6--------------------------------------------------------------------|
B|--------8----------------8------------------8-----------6-6-6-8-6----------|
G|--8-8-----8-----------------8------------------8---------------------------|
D|------------------10-10--------10------6-6---------6-----------------------|
A|---------------------------------------------------------------------------|
E|---------------------------------------------------------------------------|

Tap to rate this tab
# A B C D E F G H I J K L M N O P Q R S T U V W X Y Z