Song name
# A B C D E F G H I J K L M N O P Q R S T U V W X Y Z

The Cribs - We Share The Same Skies tab

e|----------------------------------------------------------------------------------------|
B|-----------4-------------------4--------------------------------------2--------2-----4--|
G|-----6-----------4-----4--6----------4-----4--------3--3-----3--------------4-----4-----|
D|--6-----6-----6-----6--------6----6-----6-----6--5--------4-----4--4-----4--------------|
A|----------------------------------------------------------------------------------------|
E|----------------------------------------------------------------------------------------|

                                        ^^^^X2^^^^

e|---------------------------------------------------------------------------------|
B|-----------4-------------------4---4br4-----------------------2------------------|
G|-----6-----------4-----4--6--------------3-----3-----3-----------4--4--3---------|   
D|--6-----6-----6-----6--------6--------------4-----4-----4--4---------------------|
A|---------------------------------------------------------------------------------|
E|---------------------------------------------------------------------------------|

ive tried to do the rhythm, but the chords are there so just listen to the song 

e|---------------------------------------------------------------------------------|
B|---------------------------------------------------------------------------------|
G|---------------------------------------------------------------------------------|   
D|--11--11--11--9--7--7--7--77---6--66--6--6--6---9--7-----------------------------|
A|---------------------------------------------------------------------------------|
E|--9 --9 --9 --7--5--5--5--55---4--44--4--4--4---7--5-----------------------------|

e|---------------------------------------------------------------------------------|
B|---------------------------------------------------------------------------------|
G|---------------------------------------------------------------------------------|   
D|--11--11--11--9--7--7--7--77---13--8--8--6--6--66--------------------------------|
A|---------------------------------------------------------------------------------|
E|--9 --9 --9 --7--5--5--5--55---11--6--6--4--4--44--------------------------------|

e|---------------------------------------------------------------------------------|
B|---------------------------------------------------------------------------------|
G|---------------------------------------------------------------------------------|   
D|--11--1111-13--6--6--6--6------7-----6----4--------------------------------------|
A|---------------------------------------------------------------------------------|
E|--9 --9 9--11--4--4--4--4------5-----4----6---0----------------------------------|

e|---------------------------------------------------------------------------------|
B|---------------------------------------------------------------------------------|
G|---------------------------------------------------------------------------------|   
D|--1111-11--9--666-666--77-777-7--------------------------------------------------|
A|---------------------------------------------------------------------------------|
E|--9 9 -9 --7--444-444--99-999-9--------------------------------------------------|
Tap to rate this tab
# A B C D E F G H I J K L M N O P Q R S T U V W X Y Z