Song name
# A B C D E F G H I J K L M N O P Q R S T U V W X Y Z

The Cribs - The Wrong Way To Be tab

Intro (and the root chords for the chorus) are B, G#m, E, F#
 
 
    B    G#m   E    F#
e|--7----4-----0----2--------------------------------------------|
B|--7----4-----0----2--------------------------------------------|
G|--8----4-----1----3--------------------------------------------|
D|--9- --6-----2----4--------------------------------------------|
A|--9----6-----2----4--------------------------------------------|
E|--7----4-----0----2--------------------------------------------|
 
 
 
Verse/chorus is simply this little guitar line played over and over and overů

e|---------------------------------------------------------------|
B|--------------4-4------------4-4-------------4-4---------------|
G|--4-4-4-4-4-4----4-4-4-4-4-4-----4-4-4-4-4-4-----3-3-4-3-3-4-4-|
D|---------------------------------------------------------------|
A|---------------------------------------------------------------|
E|---------------------------------------------------------------|

Check out my Cribs guitar tab blog at http://thecribsguitartabs.blogspot.co.uk/
Tap to rate this tab
# A B C D E F G H I J K L M N O P Q R S T U V W X Y Z