Song name
# A B C D E F G H I J K L M N O P Q R S T U V W X Y Z

The Cribs - You Were Always The One tab

credit goes to Smithdom from cribs forum...but for you lasy buggers who cant be bothered 
look on there, this is mroe or less all of it.....

intro

e----------------------------------------|
b----------------------------------------|
g---13--16--14--16--16-13-11-------------|
d---x---x---x---x---x--x--x--------------|
a---11--14--12--14--14-11-9--------------|
e----------------------------------------|

verse

e------12--11--9--7-------------------------------------------|
b--9---9---9---9--9------------ etc on second verse add in 12-| on b on the octave thing
g--9----------------------13----------------------------------|
d-------------------------x-----------------------------------|
a-------------------------11----------------------------------|
e-------------------------------------------------------------|

chorus

e--5--7--x--x------------------|
b--5--7--9--9------------------|
g--6--8--8--9------------------|
d--7--9--9--11-----------------|
a--7--x--x--11-----------------|
e--5--7--x--x------------------|

a brilliant song from a brilliant album. ( Love the Cribs- Hate the Kaiser chiefs)
Tap to rate this tab
# A B C D E F G H I J K L M N O P Q R S T U V W X Y Z