Song name
# A B C D E F G H I J K L M N O P Q R S T U V W X Y Z

The Cribs - Youre Gonna Lose Us tab

tabbed by rob farrimond, with thanks to 'stu and a young man called ginger tom' from 
i got the mainframe for the tab and corrected a few bits and bobs. Enjoy!

robfarrimond@hotmail.co.uk

intro (top riff ryan!)

e-14-15-16-15--14-15-16-15-15-|
b-14-14-14-14--16-16-16-16-16-|
g-14-14-14-14--14-14-14-14-14-| x3
d-----------------------------|
a-----------------------------|
E-----------------------------|


Verse "by the time they had lost him...." is just the two chords below

  B     A
e-7-----5--|
b-9-----7--|
g-8-----6--|
d-9-----7--|
a----------|
E----------|

"do you love me?....NO!" etc is the same B chord thrashed out

e-7	 e-4
b-9	 b-4
g-8  OR  g-4 (this chord just gives a bit of a thrashier sound)
d-9	 d-4
a-x	 a-x
E-x	 E-x

 Bridge-the bit for the " lets be avvvin you out" think this is right is definately 
at any rate

e-(16x4)-16-16-19-16-19-16-19---14-15-16-14*-15*-16-15-|
b-(16x4)-16-16-16-16-16-16-16---14-14-14-14*-14*-14-14-|
g-(16x4)-16-16-16-16-16-16-16---14-14-14-14*-14*-14-14-| x2
d------------------------------------------------------|
a------------------------------------------------------|
E------------------------------------------------------|

Chorus-"when im drunk i can be an arsehole!......"

e-14-15-16-15--14-15-16-15-15-|
b-14-14-14-14--16-16-16-16-16-|
g-14-14-14-14--14-14-14-14-14-| x 4
d-----------------------------|
a-----------------------------|
E-----------------------------|

After this the verse comes in again, you can play the F# and B chords as before or play
faint guitar line over the chords

for the F#

e-7-9-7-----| x2
b---------9-|
g-----------|
d-----------|
a-----------|
E-----------|
for the B

e-2-4-2-----| x2
b--------2--|
g-----------|
d-----------|
a-----------|
E-----------|


"do you love me? NO!..." again is this chord

e-7
b-9
g-8
d-9
a-x
E-x


after that its to the bridge again

e-(16x4)-16-16-19-16-19-16-19---14-15-16-14*-15*-16-15-|
b-(16x4)-16-16-16-16-16-16-16---14-14-14-14*-14*-14-14-|
g-(16x4)-16-16-16-16-16-16-16---14-14-14-14*-14*-14-14-| x2
d------------------------------------------------------|
a------------------------------------------------------|
E------------------------------------------------------|
(* is fast picking)


Chorus AGAIN-"when im drunk i can be an arsehole!......"

e-14-15-16-15--14-15-16-15-15-|
b-14-14-14-14--16-16-16-16-16-|
g-14-14-14-14--14-14-14-14-14-| x 4
d-----------------------------|
a-----------------------------|
E-----------------------------|


solo - easy to play and still sounds awesome =D

e------------------7-----7--9--7--------------------------------|
b---------9--7--9-----9-----------9---7*--8*--9*--8*--7*--8*--9*|
g-9--8--9-------------------------------------------------------|
d---------------------------------------------------------------| x2
a---------------------------------------------------------------|
E---------------------------------------------------------------|
(* is fast picking)

then into this chord again

e-7
b-9
g-8
d-9
a-x
E-x


after that ithe chord its to the bridge again

e-(16x4)-16-17-17--19-19-16---16-16-17-17--19-19-16----|
b-(16x4)-16-16-16--16-16-16---16-16-16-16--16-16-16----|
g------------------------------------------------------|
d------------------------------------------------------|
a------------------------------------------------------|
E------------------------------------------------------|


Chorus AGAIN-"when im drunk i can be an arsehole!......"

e-14-15-16-15--14-15-16-15-15-|
b-14-14-14-14--16-16-16-16-16-|
g-14-14-14-14--14-14-14-14-14-| x 4
d-----------------------------|
a-----------------------------|
E-----------------------------|


then finish on the chord

e-7
b-9
g-8
d-9
a-x
E-x
tabbed by rob farrimond, with thanks to 'stu and a young man called ginger tom' from 
i got the mainframe for the tab and corrected a few bits and bobs. Enjoy!

intro (top riff ryan!)

e-14-15-16-15--14-15-16-15-15-|
b-14-14-14-14--16-16-16-16-16-|
g-14-14-14-14--14-14-14-14-14-|
d-----------------------------|
a-----------------------------|
E-----------------------------|


Verse "by the time they had lost him...." is just the two chords below

  B     A
e-7-----5--|
b-9-----7--|
g-8-----6--|
d-9-----7--|
a----------|
E----------|

"do you love me?....NO!" etc is the same B chord thrashed out

e-7	 e-4
b-9	 b-4
g-8  OR  g-4 (this chord just gives a bit of a thrashier sound)
d-9	 d-4
a-x	 a-x
E-x	 E-x

 Bridge-the bit for the " lets be avvvin you out" think this is right is definately 
at any rate

e-(16x4)-16-16-19-16-19-16-19---14-15-16-14*-15*-16-15-|
b-(16x4)-16-16-16-16-16-16-16---14-14-14-14*-14*-14-14-|
g-(16x4)-16-16-16-16-16-16-16---14-14-14-14*-14*-14-14-| x2
d------------------------------------------------------|
a------------------------------------------------------|
E------------------------------------------------------|

Chorus-"when im drunk i can be an arsehole!......"

e-14-15-16-15--14-15-16-15-15-|
b-14-14-14-14--16-16-16-16-16-|
g-14-14-14-14--14-14-14-14-14-| x 4
d-----------------------------|
a-----------------------------|
E-----------------------------|

After this the verse comes in again, you can play the F# and B chords as before or play
faint guitar line over the chords

for the F#

e-7-9-7-----| x2
b---------9-|
g-----------|
d-----------|
a-----------|
E-----------|
for the B

e-2-4-2-----| x2
b--------2--|
g-----------|
d-----------|
a-----------|
E-----------|


"do you love me? NO!..." again is this chord

e-7
b-9
g-8
d-9
a-x
E-x


after that its to the bridge again

e-(16x4)-16-16-19-16-19-16-19---14-15-16-14*-15*-16-15-|
b-(16x4)-16-16-16-16-16-16-16---14-14-14-14*-14*-14-14-|
g-(16x4)-16-16-16-16-16-16-16---14-14-14-14*-14*-14-14-| x2
d------------------------------------------------------|
a------------------------------------------------------|
E------------------------------------------------------|
(* is fast picking)


Chorus AGAIN-"when im drunk i can be an arsehole!......"

e-14-15-16-15--14-15-16-15-15-|
b-14-14-14-14--16-16-16-16-16-|
g-14-14-14-14--14-14-14-14-14-| x 4
d-----------------------------|
a-----------------------------|
E-----------------------------|


solo - easy to play and still sounds awesome =D

e------------------7-----7--9--7--------------------------------|
b---------9--7--9-----9-----------9---7*--8*--9*--8*--7*--8*--9*|
g-9--8--9-------------------------------------------------------|
d---------------------------------------------------------------| x2
a---------------------------------------------------------------|
E---------------------------------------------------------------|
(* is fast picking)

then into this chord again

e-7
b-9
g-8
d-9
a-x
E-x


after that ithe chord its to the bridge again

e-(16x4)-16-17-17--19-19-16---16-16-17-17--19-19-16----|
b-(16x4)-16-16-16--16-16-16---16-16-16-16--16-16-16----|
g------------------------------------------------------|
d------------------------------------------------------|
a------------------------------------------------------|
E------------------------------------------------------|


Chorus AGAIN-"when im drunk i can be an arsehole!......"

e-14-15-16-15--14-15-16-15-15-|
b-14-14-14-14--16-16-16-16-16-|
g-14-14-14-14--14-14-14-14-14-| x 4
d-----------------------------|
a-----------------------------|
E-----------------------------|


then finish on the chord

e-7
b-9
g-8
d-9
a-x
E-x
Tap to rate this tab
# A B C D E F G H I J K L M N O P Q R S T U V W X Y Z