Song name
# A B C D E F G H I J K L M N O P Q R S T U V W X Y Z

The Cribs - Things Arent Gonna Change tab

Things aren't gonna change fron the new fellas album. It should be right.


Intro and Verse 1

e|--7-77-5-7-5--     -7\12-12-14-14141414--121212-14-14141414-----|
b|o-7-77-7-7-7--     -7\12-12-12-12121212--121212-12-12121212---o-|
g|--7-77-7-7-7-- x 2 -7\12-12-12-12121212--121212-12-12121212-----|    x4
d|--------------     ---------------------------------------------|
a|o-------------     -------------------------------------------o-|
e|--------------     ---------------------------------------------|

e|-7-77-5-7-5--     -7\12-12-14-14141414----0--2~--|
b|-7-77-7-7-7--     -7\12-12-12-12121212----2--2~--|
g|-7-77-7-7-7-- x 2 -7\12-12-12-12121212----2--2~--|
d|-------------     -------------------------------|
a|-------------     -------------------------------|
e|-------------     -------------------------------|

Chorus

e|22------------2---------2--2--2--2--2-2-2-2222--0-0-0-0-000--0000-0-2-0-|
b|---3------------2-222---3--3--3--3--3-3-3-3333--0-0-0-0-000--2222-2-2-2-|
g|-----2-222-33-----------4--4--4--4--4-4-4-4444--0-0-0-0-000--2222-2-2-2-|
d|------------------------4--4--4--4--4-4-4-4444--2-2-2-2-222--2222-2-2-2-|
a|------------------------------------------------2-2-2-2-222--0000-0-0-0-|
e|------------------------------------------------0-0-0-0-000--0000-0-0-0-|

e|-0-0-0-0-000--0000-0-2-0--|
b|-0-0-0-0-000--2222-2-2-2--|
g|-0-0-0-0-000--2222-2-2-2--|   x2
d|-2-2-2-2-222--2222-2-2-2--|
a|-2-2-2-2-222--0000-0-0-0--|
e|-0-0-0-0-000--0000-0-0-0--|


Riff after 1st chorus

e|-7-77-5-7-5--|       |-7~-|
b|-7-77-7-7-7--|       |-7~-|
g|-7-77-7-7-7--|   x3  |-7~-|
d|-------------|       |----|
a|-------------|       |----|
e|-------------|       |----|


Verse 2

e|--7-77-5-7-5--     -7\12-12-14-14141414--121212-14-14141414-----|
b|o-7-77-7-7-7--     -7\12-12-12-12121212--121212-12-12121212---o-|
g|--7-77-7-7-7-- x 2 -7\12-12-12-12121212--121212-12-12121212-----|    x3
d|--------------     ---------------------------------------------|
a|o-------------     -------------------------------------------o-|
e|--------------     ---------------------------------------------|

e|-7-77-5-7-5--     -7\12-12-14-14141414----0--2~--|
b|-7-77-7-7-7--     -7\12-12-12-12121212----2--2~--|
g|-7-77-7-7-7-- x 2 -7\12-12-12-12121212----2--2~--|
d|-------------     -------------------------------|
a|-------------     -------------------------------|
e|-------------     -------------------------------|


Chorus x2

Unsure About this part - might need tweaking it a bit

e|-7-5-7----7-5-7------|       ------------|
b|-7-5-7----7-5-7---5--|       -5--5-6-7-5-|
g|-------4>--------4---|   x2  ------------|  straight into outro
d|---------------------|       ------------|
a|---------------------|       ------------|
e|---------------------|       ------------|


outro

e|--------------------------------|
b|-7-75-75-7-7p5--5--6--7---5--7--|
g|------------------------4-------| until the end
d|--------------------------------|
a|--------------------------------|
e|--------------------------------|


And that is it.
Tap to rate this tab
 
# A B C D E F G H I J K L M N O P Q R S T U V W X Y Z