Song name
# A B C D E F G H I J K L M N O P Q R S T U V W X Y Z

The Cribs - Watch Trick tab

-------------------------------------------------------------------------------
		         The Watch Trick - The Cribs
-------------------------------------------------------------------------------
Tabbed by: t00re
Email: i_love_beth.s@hotmail.com

Tuning:Standard

Main Riff/ Intro
e|-----9--9------9--9-----------------------------|
B|-----10-10-----10-10------10-10-----9-9---------|
G|--------------------------10-10-----9-9---------|
D|--7---------------------------------------------|
A|------------9--------------------7--------------|
E|----------------------10------------------------|

| /  slide up
| \  slide down
| h  hammer-on
| p  pull-off
| ~  vibrato
| +  harmonic
| x  Mute note
===============================================================================
Tap to rate this tab
# A B C D E F G H I J K L M N O P Q R S T U V W X Y Z