Guitaretab - guitar tabs
Song name
# A B C D E F G H I J K L M N O P Q R S T U V W X Y Z

The Cribs - Our Bovine Public tab

verse...

e|14--14---11-11--14--14----11-11---14--14----11-11-11-12-12-12-12-11--|
B|--12--12-12-12----12---12-12-12-----12---12-12-12-12-12-12-12-12-12--|
G|---------------------------------------------------------------------|
D|---------------------------------------------------------------------|
A|---------------------------------------------------------------------|
E|---------------------------------------------------------------------|


chorus...

e|-11-11-12-14--11-9-14-11-9------repeated-------------------------------------|
B|-----------------------------------------------------------------------------|
G|-----------------------------------------------------------------------------|
D|-----------------------------------------------------------------------------|
A|-----------------------------------------------------------------------------|
E|-----------------------------------------------------------------------------|
[ Tab from: http://www.guitaretab.com/t/the-cribs/86792.html ]
bridge...

e|--7--11-11-11-9--9--9--7--9--11--------11--7----7s11-7s11-7s11-------------|
B|--7-----------------------------------11-11--------------------------------|
G|----------you---say---no----thin--cos-youll-al-ways-mean-noth-in----to-me--|
D|---------------------------------------------------------------------------|
A|---------------------------------------------------------------------------|
E|---------------------------------------------------------------------------|

e|--11-11-11-12-14-11-9--9-11-12-14-9-7-9-11--------11-7-----7s11-7s11-7s11--|
B|---------------------------------------------------------11-11-------------|
G|---------------------------------------------------------------------------|
D|---------------------------------------------------------------------------|
A|---------------------------------------------------------------------------|
E|---------------------------------------------------------------------------|
Related for Our Bovine Public tab
×
Our Bovine Public