Guitaretab - guitar tabs
Song name
# A B C D E F G H I J K L M N O P Q R S T U V W X Y Z

The Cribs - Girls Like Mystery tab

                    Girls like Mystery - The Cribs
-------------------------------------------------------------------------------
Tabbed by: Ben Pattyson
Email:benpattyson@yahoo.com

Intro

e|-4--3--1--3------1-1---3-3---1-1---6-6----3-3-3-3-3-3-3-3-|
B|-------------4---1-1---3-3---1-1---6-6----4-4-4-4-4-4-4-4-|
G|----------------------------------------------------------|
D|----------------------------------------------------------|
A|----------------------------------------------------------|
E|----------------------------------------------------------|

e|-4--3--1--3-----1-1---3-3---1-1--6-6--3-3-3-3-3-3-3-3-3-3-3-3-3-3-3-3-|
B|-------------4--1-1---3-3---1-1--6-6--4-4-4-4-4-4-4-4-4-4-4-4-4-4-4-4-|
G|----------------------------------------------------------------------|
D|----------------------------------------------------------------------|
A|----------------------------------------------------------------------|
E|----------------------------------------------------------------------|

Verse

e|-3--3--3--6---------------------3--3--3--6---------------------|
B|-------------x-3--3--3--1----1--------------x-3--3--3--1-----1-|
G|--------------------------3-------------------------------3----|
D|---------------------------------------------------------------|
A|---------------------------------------------------------------|
E|---------------------------------------------------------------|

e|-3--3--3--6-----------------------3--3--3--6----------3-----3--|
B|-------------x-3--3--3--1------1--------------x-3--3-----1-----|
G|--------------------------3------------------------------------| x2
D|---------------------------------------------------------------|
A|---------------------------------------------------------------|
E|---------------------------------------------------------------|

e|-1-1---3-3---1-1---6-6----3-3-3-3-3-3-3-3--4--3--1--3--------|
B|-1-1---3-3---1-1---6-6----4-4-4-4-4-4-4-4--------------4-----|
G|-------------------------------------------------------------|
D|-------------------------------------------------------------|
A|-------------------------------------------------------------|
E|-------------------------------------------------------------|
[ Tab from: http://www.guitaretab.com/t/the-cribs/89162.html ]
e|-1-1---3-3---1-1---6-6----3-3-3-3-3-3-3-3----|
B|-1-1---3-3---1-1---6-6----4-4-4-4-4-4-4-4----|
G|---------------------------------------------|
D|---------------------------------------------|
A|---------------------------------------------|
E|---------------------------------------------|


Chorus

e|--3-3-3-3-3-3-3-3--3-3--3--1--3--6--3--1--3-3-3-3-3-3-3-3-3-3--|
B|--4-4-4-4-4-4-4-4--3-3--------------------4-4-4-4-4-4-4-4-4-4--|
G|---------------------------------------------------------------|
D|---------------------------------------------------------------|
A|---------------------------------------------------------------|
E|---------------------------------------------------------------|

e|-3-1-3-6-3-1---3-3--4-4--1-1--3-3--3-3-3-3-3-3-3-3-3-3\----|
B|---------------4-4--4-4--3-3--3-3--4-4-4-4-4-4-4-4-4-4\----|
G|-----------------------------------------------------------|
D|-----------------------------------------------------------|
A|-----------------------------------------------------------|
E|-----------------------------------------------------------|


e|-15--13--15--18--15--13--15-15-15-15-15-15-15-15-15-15--|
B|-------------------------16-16-16-16-16-16-16-16-15-15--|
G|--------------------------------------------------------|
D|--------------------------------------------------------|
A|--------------------------------------------------------|
E|--------------------------------------------------------|

e|-15--13--15--18--15--13--15-15-15-15-15-15-15-15-15-15--|
B|-------------------------16-16-16-16-16-16-16-16-16-16--|
G|--------------------------------------------------------|
D|--------------------------------------------------------|
A|--------------------------------------------------------|
E|--------------------------------------------------------|

e|-3-3--4-4--1-1--3-3--3-3-3-3-3-3-3-3-3-3-3-3-3-3-3-3----|
B|-4-4--4-4--3-3--3-3--4-4-4-4-4-4-4-4-4-4-4-4-4-4-4-4----|
G|--------------------------------------------------------|
D|--------------------------------------------------------|
A|--------------------------------------------------------|
E|--------------------------------------------------------|

(Not 100% sure about the chorus but still fits)

Thatís about it.  If you have any queries or questions or stuff like that please feel 
to email me!

| /  slide up
| \  slide down
| h  hammer-on
| p  pull-off
| x  Mute note
Related for Girls Like Mystery tab