Song name
# A B C D E F G H I J K L M N O P Q R S T U V W X Y Z

The Cribs - Ive Tried Everything tab

I'VE TRIED EVEYTHING by THE CRIBS
from the album MEN'S NEEDS, WOMEN'S NEEDS WHATEVER
tabbed my matty99


Intro:

e|--9-9-9-9-7-9-9----9-9-9-9-7-7-7-7------|
B|--9-9-9-9-9-9-9----9-9-9-9-9-9-9-9------|   Play this twice through
G|----------------------------------------|
D|----------------------------------------|
A|----------------------------------------|
E|----------------------------------------|

Verse:

e|-------------------------------------------------------------------|
B|--9-----9-------------------/-12-12-12-11---9----------------------|
G|--9-----9-------------------/-9--9--9--9----9---8--8-8-8-8-6-6-----|
D|--9-----9--(let ring)---------------------------8--8-8-8-8-8-8-----|
A|--7-----7----------------------------------------------------------|
E|-------------------------------------------------------------------|

e|-------------------------------------------------------------------|
B|--9-----9-------------------/-12-12-12-11---9---8-8-8-9--11--------|
G|--9-----9-------------------/-9--9--9--9----9---8-8-8-8--8---------|
D|--9-----9--(let ring)----------------------------------------------|
A|--7-----7----------------------------------------------------------|
E|-------------------------------------------------------------------|


e|-------------------------------------------------------------------|
B|--9-----9-------------------/-12-12-12-11---9----------------------|
G|--9-----9-------------------/-9--9--9--9----9---8--8-8-8-8-6-6-----|
D|--9-----9--(let ring)---------------------------8--8-8-8-8-8-8-----|
A|--7-----7----------------------------------------------------------|
E|-------------------------------------------------------------------|

e|------------------------9-9---9-9---9-9-9-----7-7---6-----6------6----|
B|--9-----9---------------9-9---9-9---9-9-9--x--9-9-----9-----9------9--|
G|--9-----9---------------9-9---9-9---9-9-9--x--8-8-------8-----8-------|
D|--9-----9--(let ring)-------------------------9-9---------------------|
A|--7-----7-------------------------------------------------------------|
E|----------------------------------------------------------------------|

Chorus:
'Can't Figure it out...'
e|--7-----7-----7---9-------9-------9-----11-------11-------11------|
B|----9-----9-----9---11------11------11-----12-------12-------12---|
G|------9-----9----------11------11-------------11-------11---------|
D|------------------------------------------------------------------|
A|------------------------------------------------------------------|
E|------------------------------------------------------------------|

e|--11-------11-------11----12-------12-------14-------11-----11----------|
B|----12-------12-------12-----12-------12-------12------12------12----12-|
G|------11-------11---------------11-------11-------11-----11-------11----|
D|------------------------------------------------------------------------|
A|------------------------------------------------------------------------|
E|------------------------------------------------------------------------|


e|-11-11--11-11--11-11--11-11--11-11--11-11--11-11------------------|
B|-12-12--12-12--12-12--12-12--12-12--12-12--12-12------------------|
G|-11-11--11-11--11-11--11-11--11-11--11-11--11-11------------------|
D|------------------------------------------------------------------|
A|------------------------------------------------------------------|
E|------------------------------------------------------------------|


Verse 2:

e|-------------------------------------------------------------------|
B|--9-----9-------------------/-12-12-12-11---9----------------------|
G|--9-----9-------------------/-9--9--9--9----9---8--8-8-8-8-6-6-----|
D|--9-----9--(let ring)---------------------------8--8-8-8-8-8-8-----|
A|--7-----7----------------------------------------------------------|
E|-------------------------------------------------------------------|

e|------------------------9-9---9-9---9-9-9-----7-7---6-----6------6----|
B|--9-----9---------------9-9---9-9---9-9-9--x--9-9-----9-----9------9--|
G|--9-----9---------------9-9---9-9---9-9-9--x--8-8-------8-----8-------|
D|--9-----9--(let ring)-------------------------9-9---------------------|
A|--7-----7-------------------------------------------------------------|
E|----------------------------------------------------------------------|


The repeat the chorus twice more.


Interlude

e|--9-9-9-7-9-7-----9-9-9-7-9-7-6--6--6-7-6-----------9----------|
B|--9-9-9-9-9-9-----9-9-9-9-9-9-9--9--9-9-9--9--9--11---11--9----|
G|-------------------------------------------9-------------------|
D|---------------------------------------------------------------|
A|---------------------------------------------------------------|
E|---------------------------------------------------------------|

                                                       1st and second time only
e|-12-12-12-12-11-11-11----12-12-12-12-11-11-11--|-9-9-9-9-11-11--7-7-7-6-6-6-|
B|-12-12-12-12-12-12-12----12-12-12-12-12-12-12--|-9-9-9-9-9--9---9-9-9-9-9-9-|
G|-----------------------------------------------|----------------------------|
D|-----------------------------------------------|----------------------------|
A|-----------------------------------------------|----------------------------|
E|-----------------------------------------------|----------------------------|

Repeat this interlude bit twice more. Then back into the chorus:

and that's it.

Hope it is some help to you!


Tap to rate this tab
# A B C D E F G H I J K L M N O P Q R S T U V W X Y Z