Guitaretab - guitar tabs
Song name
# A B C D E F G H I J K L M N O P Q R S T U V W X Y Z

The Cribs - My Life Flashed Before My Eyes tab

----------------------------------------------------------------------------
           MY LIFE FLASHED BEFORE MY EYES - The Cribs
----------------------------------------------------------------------------
Tabbed by: pearlwhizz
Email: jumped_up@hotmail.co.uk

Tuning: Standard

My First Tab!

Intro - Tremelo Picking

e|-------14~~ 10~~ 14~~ 12~~ 14~~ -------------------------------------------|
B|-10~~---------------------------12~~-10~~----------------------------------|
G|-------------------------------------------------[X4]----------------------|
D|---------------------------------------------------------------------------|
A|---------------------------------------------------------------------------|
E|---------------------------------------------------------------------------|



Verse

e|-10-10-10-10-10-10-10---15-15-15-15-15-15-15---12-12-14-14-10-10-14-12-12--|
B|-10-10-10-10-10-10-10---14-14-14-14-14-14-14-------------------------------|
G|---------------------------------------------------------------------------|
D|---------------------------------------------------------------------------|
A|---------------------------------------------------------------------------|
E|---------------------------------------------------------------------------|


e|-12-14------------------10-10-10-10-10-10-10-----9--9--9--9--9--9--9--9----|
B|--------12-12-10--------10-10-10-10-10-10-10----10-10-10-10-10-10-10-10----|
G|---------------------------------------------------------------------------|
D|---------------------------------------------------------------------------|
A|---------------------------------------------------------------------------|
E|---------------------------------------------------------------------------|



e|-12-12-14-14-10-10-14-12-12-12-14------------------------------------------|
B|----------------------------------12-12-10---------------------------------|
G|---------------------------------------------------------------------------|
D|---------------------------------------------------------------------------|
A|---------------------------------------------------------------------------|
E|---------------------------------------------------------------------------|

Play twice with the end riff being cut short to

e|-12-12-14-14-10-10-14-12-14------------------------------------------------|
B|---------------------------------------------------------------------------|
G|---------------------------------------------------------------------------|
D|---------------------------------------------------------------------------|
A|---------------------------------------------------------------------------|
E|---------------------------------------------------------------------------|




Chorus
e|-------14~~ 10~~ 14~~ 12~~ 14~~ -------------------------------------------|
B|-10~~---------------------------12~~-10~~----------------------------------|
G|-------------------------------------------------[X4]----------------------|
D|---------------------------------------------------------------------------|
A|---------------------------------------------------------------------------|
E|---------------------------------------------------------------------------|


[ Tab from: http://www.guitaretab.com/t/the-cribs/89821.html ]
Verse 2 is the same again with a slight modification to the riff at one point

e|-12-12-14-14-10-10-14-12-12-12-14------------------------------------------|
B|----------------------------------12s/14-----------------------------------|
G|---------------------------------------------------------------------------|
D|---------------------------------------------------------------------------|
A|---------------------------------------------------------------------------|
E|---------------------------------------------------------------------------|



Chorus is the same again




"You let us down" bridge part (pretty sure notes are correct listen closely for the timings)


e|-14-14---14-14-14--14-14-14--14-14-14-----14------14-14---14-14-14-------
-|
B|-15-15---15-15-15--15-15-15--15-15-15-----15------15-15---15-15-15-------
-|
G|---------------------------------------------------------------------------|
D|---------------------------------------------------------------------------|
A|---------------------------------------------------------------------------|
E|---------------------------------------------------------------------------|


e|-14-14-14--14-14-15-14------14-14-15-15-----------14-15-14----------------
-|
B|-15-15-15--15----------15---------------15-15-15------------15------------
-|
G|---------------------------------------------------------------------------|
D|---------------------------------------------------------------------------|
A|---------------------------------------------------------------------------|
E|---------------------------------------------------------------------------|


e|---------------------------------------------------------------------------|
B|---------------------------------------------------------------------------|
G|-11s/12--12--12s/14--14--------11------------------------------------------|
D|-------------------------11-11-----11-14--------------[X2]-----------------|
A|---------------------------------------------------------------------------|
E|---------------------------------------------------------------------------|



Chorus is played twice more normaly...then twice like this (*=half note length)

e|------14~~-10~~-14~~-12*~~-14*~~-10*~~-14*~~-12*~~-14*~~-------------------|
B|-10~~----------------------------------------------------12*~~-10*~~-------|
G|---------------------------------------------------------------------------|
D|---------------------------------------------------------------------------|
A|---------------------------------------------------------------------------|
E|---------------------------------------------------------------------------|


play chorus riff twice again and then end on

e|------14~~-10--------------------------------------------------------------|
B|-10~~----------------------------------------------------------------------|
G|---------------------------------------------------------------------------|
D|---------------------------------------------------------------------------|
A|---------------------------------------------------------------------------|
E|---------------------------------------------------------------------------|


| /  slide up
| \  slide down
| h  hammer-on
| p  pull-off
| ~  vibrato
| +  harmonic
| x  Mute note
===============================================================================
Related for My Life Flashed Before My Eyes tab
Advertisement will be closed in 10 seconds