Song name
# A B C D E F G H I J K L M N O P Q R S T U V W X Y Z

The Cribs - Shoot The Poets tab

I'm pretty sure that Ryan Jarman plays it in a different tuning, but you can make it 
allbeit with a couple of hard streches, in standard tuning, WITH A CAPO ON THE 2ND FRET.

FINGERING SUGGESTIONS: for the strings, it is best to finger-pick it, using your 4th 
on the 2nd string, 3rd finger on the 3rd string, and 2nd finger on the 4th string, with 
thumb on the 5th and 6th strings.

Fret Positions:

----------------------------------------------------|
--------0----------------0-----------0--------------|
-----------3----------------3----------3------------|
---------------1---------------1---------1----------|
----2-----------------------------------------------|
--------------------4--------------0----------2-----|

ACTUAL SONG:

intro and verse:

e|-----------------------------------------------------------------------------------|
B|--------0-----0-----0----------0----0----0--------0---------0----0--0-----0--------|
G|---------3-----3-----3----------3----3----3--------3---------3----3--------3-------|
D|-----------1-----1-----1----------1-----1---1--------1--------1--------------1-----|
A|----2------------------------------------------------------------------2-------2---|
E|----------------------------4-------------------0--------2-------------------------|

----------------|
--0-----0-------|
---3-----3------|
-----1-----1----|           Repeat this until the chorus
----------------|
----------------|


then the chorus is:

e|--------------------------------------------------------------0------0-------------|
B|--------0------0-------0-----0-------0-----0------0-----0----0-------0-------------|
G|---------3---3----------3---3---------3---3--------3---3-----1-------3-------------|
D|-----------1--------------1-------------1------------1-------2--------4------------|
A|--------------------------------------------------------------2-------4------------|
E|----4-------------3--------------2-------------1--------------0-------2------------|


Then repeat the verse and the chorus, before following into the solo/bridge:

e|------------4-4-4-4-4-----7-7-7-7-6-----6--7--6-------4--2-4-6-6-4-4-2-2-----------|
B|------7-4-4-----------4-4-----------4-4---4--4--4--/2---2-----------------2--------|
G|-----------------------------------------------------------------------------------|
D|-----------------------------------------------------------------------------------|
A|---2-------------------------------------------------------------------------------|
E|-----------------------------------------------------------------------------------|

e|---------2---4-2--/6-7-9-6---7-7-7-7--9-9-9-7-7-7-11-11-11-7-7-7-------------------|
B|--h3-4-----4--------7-7-7----7-7-7-7--7-7-7-7-7-7-7--7--7--7-7-7--9-9-9-9----------|
G|--------------------------------------------------------------------8-8-8-8--------|
D|-----------------------------------------------------------------------------------|
A|-----------------------------------------------------------------------------------|
E|-----------------------------------------------------------------------------------|

e|-----7-9-9-9-7-7-7-11-11-11-7-7-7------------------7-9-9-9-7-7-7-11-11-11-7-7-7----|
B|-----7-7-7-7-7-7-7-7--7--7--7-7-7------------------7-7-7-7-7-7-7-7--7--7--7-7-7----|
G|------------------------------------9---9---9---9----------------------------------|
D|-------------------------------------11--11--11--11--------------------------------|
A|-----------------------------------------------------------------------------------|
E|-----------------------------------------------------------------------------------|

e|---6-6-6-6--6-7-6-7-6--------------------------------------------------------------|
B|---7-7-7-7--7-7-7-7-7--------------------------------------------------------------|
G|-----------------------------------------------------------------------------------|
D|-----------------------------------------------------------------------------------|
A|-----------------------------------------------------------------------------------|
E|-----------------------------------------------------------------------------------|

then revert to the chorus, which this time is strummed a little more rather than picked, 
finally the intro, which is almost exactly the same.

Enjoy!
Tap to rate this tab
# A B C D E F G H I J K L M N O P Q R S T U V W X Y Z