Guitaretab - guitar tabs
Song name
# A B C D E F G H I J K L M N O P Q R S T U V W X Y Z

The Cribs - It Happened So Fast tab

intro/verse


|--9--9-9-9--11--11-1111--12--12-12-12--11-11-11-11-----------|
|--9--9-9-9--9---9--9--9---10--10-10-10--9--9--9--9------------|
|--------------------------------------------------------------|
|--------------------------------------------------------------|
|--------------------------------------------------------------|
|--------------------------------------------------------------|
[ Tab from: http://www.guitaretab.com/t/the-cribs/93667.html ]
pre chorus
   
   e     c#m   a     b
|--7----4----5----7--|
|--9----5----5----7--|
|--9----6----6----8--|
|--9----6----7----9--|
|--7----4----7----9--|
|--x----x----5----7--|


e c#m a b   X 2

chorus

    e    g#m   c#m   a    b
|--12----11----9-----5----7--|
|--12----12----9-----5----7--|
|--13----13----9-----6----8--|
|--14----13----11----7----9--|
|--14----11----11----7----9--|
|--12----x ----9-----5----7--|




e               g#m
you always said once was not enough

c#m
every time we go for a second try

a     b         a           b
now i know that it happened so fast x2


repeat
Related for It Happened So Fast tab