Guitaretab - guitar tabs
Song name
# A B C D E F G H I J K L M N O P Q R S T U V W X Y Z

The Cribs - Womens Needs tab

Womens Needs - The Cribs

Tabbed by: Nemesis117
Email: daoffspring@gmail.com

Tuning: Standard

One of the best songs off the album
just listen to the song to get the timing
it should be accurate enough

Intro/Verse
E|-----------------------------------------------------------------|
B|-----------------------------------------------------------------|
G|-----------------------------------------------------------------|
D|-x-x-9-9-x-x-8-8-x-x-9-9-x-x-8-8-x-x-9-9-x-x-8-8-x-x-9-9-x-x-8-8-|
A|-----------------------------------------------------------------|
E|-----------------------------------------------------------------|

E|---------------------------------------------------------------------|
B|---------------------------------------------------------------------|
G|---------------------------------------------------------------------|
D|-x-x-10-10-x-x-9-9-x-x-12-12-x-x-9-9-x-x-9-9-x-x-8-8-x-x-9-9-x-x-8-8-| x2
A|---------------------------------------------------------------------|
E|---------------------------------------------------------------------|

E|-----------------------------------------------------------------|
B|-----------------------------------------------------------------|
G|-----------------------------------------------------------------|
D|-x-x-9-9-x-x-8-8-x-x-9-9-x-x-8-8-x-x-9-9-x-x-8-8-x-x-9-9-x-x-8-8-|
A|-----------------------------------------------------------------|
E|-----------------------------------------------------------------|

E|---------------------------------------------------------------------------|
B|---------------------------------------------------------------------------|
G|---------------------------------------------------------------------------|
D|-x-x-10-10-x-x-9-9-x-x-12-12-12-12-9-9-7-7-x-x-9-9-x-x-8-8-x-x-9-9-x-x-8-8-|
A|---------------------------------------------------------------------------|
E|---------------------------------------------------------------------------|
[ Tab from: http://www.guitaretab.com/t/the-cribs/95947.html ]
Chorus
E|-------------------------------------------------|
B|-------------------------------------------------|
G|-------------------------------------------------|
D|-10--9----10-9----10-9----7-9-7--0--9-7-0--9-7-5-|
A|-------7--------7------7-------------------------|
E|-------------------------------------------------|
  Play this twice then play it another two times but tremolo picked


Then play the second part of the verse twice

Chorus again, same as before

Solo
E|---------------------------------------------------------------------------------------------------|
B|-12--12--12--12--12-------12--12--12--12--12-------12--12--12--12--12-------12--12--12--1212------|
G|-14bu16--16--16--16bd14---14bu16--16--16--16bd14---14bu16--16--16--16bd14---14bu16--16--16--16bd14-|
D|---------------------------------------------------------------------------------------------------|
A|---------------------------------------------------------------------------------------------------|
E|---------------------------------------------------------------------------------------------------|

E|------------------------------------------------------------------|
B|-17*--15*--12*--17*-15*--12*--17*-15*-12*-------------------------|
G|-------------------------------------------/11*--/12*--/16*--/11*-|
D|------------------------------------------------------------------|
A|------------------------------------------------------------------|
E|------------------------------------------------------------------|

E|---------------------------------------------------------------------------------------------------|
B|-12--12--12--12--12-------12--12--12--12--12-------12--12--12--12--12-------12--12--12--1212------|
G|-14bu16--16--16--16bd14---14bu16--16--16--16bd14---14bu16--16--16--16bd14---14bu16--16--16--16bd14-|
D|---------------------------------------------------------------------------------------------------|
A|---------------------------------------------------------------------------------------------------|
E|---------------------------------------------------------------------------------------------------|

E|-------------------------------------------------------------/*---|
B|-17*--15*--12*--17*-15*--12*--17*-15*-12*-------------------------|
G|-------------------------------------------/12*--/14*--/16*-------|
D|------------------------------------------------------------------|
A|------------------------------------------------------------------|
E|------------------------------------------------------------------|

Chorus again but this time when you play the tremolo picked but play it four times

Then just go crazy.
There is no way im gonna tab that ending.

Thats your lot
Any questions my emails up there ^^
Related for Womens Needs tab