Song name
# A B C D E F G H I J K L M N O P Q R S T U V W X Y Z

The Cribs - Dont You Wanna Be Relevant tab

Help us improve GuitareTab! Take a short survey!
some bits are bound to be wrong but playing it along it all fits so fill yer boots

Intro:

----------------------------------------------------------------------------|--(1st-time-only)-|
-555555-4------------555555-4-----------------------------------------------|------------------|
---------------------------------------------------4------------------------|------------------|
----------6-6-666-66----------6-6-666-66---6666-77---------6-6-4-4-22222222-|-4-4-4/6-6-6-6----|
----------------------------------------------------6-6--6------------------|------------------|
----------------------------------------------------------------------------|------------------|

Verse:

------------------------------------------------------------------------------0---0---0---0---|
-----------------9-9-9-9------------------9-9-9-9------------------9-9-9-9---(0)-(0)-(0)-(0)--|
-9-9--11-11-9-9--9-9-9-9--9-9--11-11-9-9--9-9-9-9--9-9--11-11-9-9--9-9-9-9--8---8---8---8-----|
-9-9--9--9--9-9--9-9-9-9--9-9--9--9--9-9--9-9-9-9--9-9--9--9--9-9--9-9-9-9--------------------|
----------------------------------------------------------------------------------------------|
----------------------------------------------------------------------------------------------|

-------------------------------------------------------0---0---0---0----0---0---0---0----------|
-----------------9-9-9-9------------------9-9-9-9-----(0)-(0)-(0)-(0)--(0)-(0)-(0)-(0)---------|
-9-9--11-11-9-9--9-9-9-9--9-9--11-11-9-9--9-9-9-9----8---8---8---8----8---8---8---8------------|
-9-9--9--9--9-9--9-9-9-9--9-9--9--9--9-9--9-9-9-9----------------------------------------------|
-----------------------------------------------------------------------------------------------|
-----------------------------------------------------------------------------------------------|


Chorus:

----------------------------------------------------------------------------|--(1st-time-only)-|
-555555-4------------555555-4-----------------------------------------------|------------------|
---------------------------------------------------4------------------------|------------------|
----------6-6-666-66----------6-6-666-66---6666-77---------6-6-4-4-22222222-|-4-4-4/6-6-6-6----|
----------------------------------------------------6-6--6------------------|------------------|
----------------------------------------------------------------------------|------------------|

Verse:

------------------------------------------------------------------------------0---0---0---0---|
-----------------9-9-9-9------------------9-9-9-9------------------9-9-9-9---(0)-(0)-(0)-(0)--|
-9-9--11-11-9-9--9-9-9-9--9-9--11-11-9-9--9-9-9-9--9-9--11-11-9-9--9-9-9-9--8---8---8---8-----|
-9-9--9--9--9-9--9-9-9-9--9-9--9--9--9-9--9-9-9-9--9-9--9--9--9-9--9-9-9-9--------------------|
----------------------------------------------------------------------------------------------|
----------------------------------------------------------------------------------------------|

-------------------------------------------------------0---0---0---0----0---0---0---0----------|
-----------------9-9-9-9------------------9-9-9-9-----(0)-(0)-(0)-(0)--(0)-(0)-(0)-(0)---------|
-9-9--11-11-9-9--9-9-9-9--9-9--11-11-9-9--9-9-9-9----8---8---8---8----8---8---8---8------------|
-9-9--9--9--9-9--9-9-9-9--9-9--9--9--9-9--9-9-9-9----------------------------------------------|
-----------------------------------------------------------------------------------------------|
-----------------------------------------------------------------------------------------------|

Chorus:

----------------------------------------------------------------------------|--(1st-time-only)-|
-555555-4------------555555-4-----------------------------------------------|------------------|
---------------------------------------------------4------------------------|------------------|
----------6-6-666-66----------6-6-666-66---6666-77---------6-6-4-4-22222222-|-4-4-4/6-6-6-6----|
----------------------------------------------------6-6--6------------------|------------------|
----------------------------------------------------------------------------|------------------|

Middle Eight:

--7777777777777777-9999999977777777---------------------------------9-----7--------------------|
--9999999999999999-9999999999999999-9999999999999999--------9--------7-----9-------------------|
--9999999999999999-8888888888888888-8888888888888888------8---8---8---9-8---9------------------|
------------------------------------9999999999999999----9-------9------------------------------|
------------------------------------------------------6----------------------------------------|
-----------------------------------------------------------------------------------------------|


--7777777777777777-9999999977777777------------------------------------------------------------|
--9999999999999999-9999999999999999-999999999999999999999999--7--------------------------------|
--9999999999999999-8888888888888888-888888888888888888888888--8--------------------------------|
------------------------------------999999999999999999999999--9--------------------------------|
--------------------------------------------------------------9--------------------------------|
-----------------------------------------------------------------------------------------------|

Chorus:

----------------------------------------------------------------------------|--(1st-time-only)-|
-555555-4------------555555-4-----------------------------------------------|------------------|
---------------------------------------------------4------------------------|------------------|
----------6-6-666-66----------6-6-666-66---6666-77---------6-6-4-4-22222222-|-4-4-4/6-6-6-6----|
----------------------------------------------------6-6--6------------------|------------------|
----------------------------------------------------------------------------|------------------|
Related for Dont You Wanna Be Relevant tab