Song name
# A B C D E F G H I J K L M N O P Q R S T U V W X Y Z

The Crimea - White Russian Galaxy tab

----------------------------------------------------------------------------
	         White Russian Galaxy (intro) - The Crimea
----------------------------------------------------------------------------
Tabbed by: acoustic-fish
Tuning: EADGBe (standard)

i have only tabbed the intro to this song, mainly because the verse is too advanced for
:P i tried... there is a little piano intro before the song, but i havent tabbed that,
because it is played on a piano.

when playing the power chords, use only downstrokes, and let the chords ring. for the
chords, play using upstrokes, and mute the chord with the fretting hand just after
listen to the song for the exact timing.

 e|---------------|---------------|---------------|---------2-3-3-|
 B|---------------|---------------|---------------|---------4-5-5-|
 G|---------------|---------------|---------------|---------4-5-5-|
 D|---------------|---------------|---------------|---------------|
 A|---------------|---------------|---------------|---------------|
 E|---------------|---------------|---------------|---------------|

 e|-2-3--3-3-2-2--|-2-222-2-2-----|-2-3--3-3-2-2--|-2-222-2-2-----|
 B|-4-5--5-5-4-4--|-4-444-4-4-2-2-|-4-5--5-5-4-4--|-4-444-4-4-2-2-|
 G|-4-5--5-5-4-4--|-4-444-4-4-4-4-|-4-5--5-5-4-4--|-4-444-4-4-4-4-|
 D|------4-----3--|-------3---4-4-|------4-----3--|-------3---4-4-|
 A|------3-----2--|-------2-----3-|------3-----2--|-------2-----3-|
 E|------3-----2--|-------2-----2-|------3-----2--|-------2-----2-|

 e|-2-3--3-3-2-2--|-2-222-2-2-----|-2-3--3-3-2-2--|-2-222-2-2-----|
 B|-4-5--5-5-4-4--|-4-444-4-4-2-2-|-4-5--5-5-4-4--|-4-444-4-4-2-2-|
 G|-4-5--5-5-4-4--|-4-444-4-4-4-4-|-4-5--5-5-4-4--|-4-444-4-4-4-4-|
 D|------4-----3--|-------3---4-4-|------4-----3--|-------3---4-4-|
 A|------3-----2--|-------2-----3-|------3-----2--|-------2-----3-|
 E|------3-----2--|-------2-----2-|------3-----2--|-------2-----2-|

these are also the chords for the chorus.
...and the '222' '444' '444' is three different chords, not one!
hope that was clear... great song

enjoy!

| /  slide up
|   slide down
| h  hammer-on
| p  pull-off
| ~  vibrato
| +  harmonic
| x  Mute note
============================================================================
Tap to rate this tab
# A B C D E F G H I J K L M N O P Q R S T U V W X Y Z