Song name
# A B C D E F G H I J K L M N O P Q R S T U V W X Y Z

The Crimson Armada - The Sound The Flood The Hour tab

THE SOUND, THE FLOOD, THE HOUR - The Crimson Armada

Intro - Tabbed by Jetfuel495

I'm taking a crack at this song. This is just the intro here, I'll post the rest later.

This part is played from the beginning all the way through the first verse.

     PM PM
            |--3*-| |-3-|  |--3--|  |--3--| |-3-|  |--3--| |-3-|
     S  S   S  S  S S S S  S  S  S  S  S  S S S S  S  S  S S S S
D||--------------------------------------------------------------|
A||--------------------------------------------------------------|
F||--------------------------------------------------------------|
C||--------------------------------------------------------------|
G||--------12-12-12-8-8-8-------------------------10-10-10-8-8-8-|
C||--0--0-----------------10-10-10-12-12-12-8-8-8----------------|


  PM PM
         |--3--| |-3-|  |--3--|  |--3--| |-3-| |-3-| |-3-|
  S  S   S  S  S S S S  S  S  S  S  S  S S S S S S S S S S
-----------------------------------------------------------|
-----------------------------------------------------------|
-----------------------------------------------------------|
-----------------------------------------------------------|
--------12-12-12-8-8-8-------------------------7-7-7-8-8-8-|
--0--0-----------------10-10-10-12-12-12-8-8-8-------------|


  PM PM   PM     PM PM     PM     PM
  S  S  S S  S S S  S  S S S  S S S  S S
-----------------------------------------|
-----------------------------------------|
-----------------------------------------|
-----------------------------------------|
-----------------------8-5-----------5-8-|
--0--0--5-0--5-8-0--0------0--5-8-0------|


  PM PM   PM      PM PM      PM      PM
  S  S  S S  S  S S  S   S S S  S  S S  S  S
---------------------------------------------||
---------------------------------------------||
---------------------------------------------||
---------------------------------------------||
------------------------12-8------------8-12-||
--0--0--8-0--8-12-0--0-------0--8-12-0-------||


Duration Legend
---------------
W - whole
H - half
Q - quarter
E - 8th
S - 16th
T - 32nd
X - 64th
. - note dotted
* |-3-|  - triplets


Tablature Legend
----------------
L - tied note
x - dead note
g - grace note
(n) - ghost note
> - accentuded note
NH - natural harmonic
AH - artificial harmonic
TH - tapped harmonic
SH - semi harmonic
PH - pitch harmonic
h - hammer on
p - pull off
b - bend
br - bendRelease
pb - preBend
pbr - preBendRelease
brb - bendReleaseBend
\n/ - tremolo bar dip
\n - tremolo bar dive
-/n - tremolo bar Release up
/n\ - tremolo bar inverted dip
/n - tremolo bar return
-\n - tremolo bar Release down
S - shift slide
s - legato slide
/ -  slide into from below or out of upwards
\ -  slide into from above or out of downwards
~ - vibrato
W - wide vibrato
tr - trill
TP - tremolo picking
T - tapping
S - slap
P - pop
< - fade in
^ - brush up
v - brush down
Tap to rate this tab
# A B C D E F G H I J K L M N O P Q R S T U V W X Y Z