Song name
# A B C D E F G H I J K L M N O P Q R S T U V W X Y Z

The Crimson Armada - The Sound The Flood The Hour tab

Only tabbing the first part. going to tab the rest later:)

Intro
D --------------------------------------------------|
A --------------------------------------------------|
F --------------------------------------------------|
C --------------------------------------------------|
G -----12-12-12-8-8-----------------10-10-8-8-------|
C 0-0----------------10-10-12-12-8-8----------------|

-----------------------------------------------|
-----------------------------------------------|
-----------------------------------------------|
-----------------------------------------------|
----12-12-12-8-8----------------8-8-12-12------|
-0-0-------------10-10-12-12-8-8---------------|
figure out the timming and how many times they are ment to be played ursef:)
-----------------------------------------------|
-----------------------------------------------|
-----------------------------------------------|
-----------------------------------------------|
----8p5----5h8---------------12p8----8h12------|
-5-5h8--5h8-----------8-8h12-----8h12----------|

-----------------------------------------------|
-----------------------------------------------|
-----------------------------------------------|
-----------------------------------------------|
0000-5h8--0000-5h8--0000-4h7--0000-4h7---------|
0000------0000------0000------0000-------------|

----------------------------------------------|
----------------------------------------------|
----------------------------------------------|
----------------------------------------------|
0000-8h12--0000-8h12--0000-7h10--0000-7h10----|
0000-------0000-------0000-------0000---------|

i will finish the rest off soon:)
Tap to rate this tab
 
# A B C D E F G H I J K L M N O P Q R S T U V W X Y Z