The Crimson Armada - The Final Words tab

-------------------------------------------------------------------------------
			     The Final Words - The Crimson Armada
-------------------------------------------------------------------------------
Tabbed by: Shane Wass
Email: A-Lot-Like-Vegas@live.com

Tuning: Drop C

D|---------------------------------------------------------------------------|  \
A|---------------------------------------------------------------------------|   |
F|---------------------------------------------------------------------------|   |
C|---------------------------------------------------------------------------|   |
G|-5--------5p0-0-8p0-0-7p0-12--------10p0-0-12p0-0-10p0-8-------------------|   |
C|---000000--------------------000000----------------------000000------------|   |
     ------                    ------                      ------                |  4 times
D|---------------------------------------------------------------------------|   |
A|---------------------------------------------------------------------------|   |
F|---------------------------------------------------------------------------|   |
C|---------------------------------------------------------------------------|   |
G|-8p0-0-10p0-0-8p0-7p0-0-8p0-0-7p0-5p0-0-7p0-0-4p0-5------------------------|   |
C|---------------------------------------------------------------------------|  /

D|---------------------------------------------------------------------------|
A|---------------------------------------------------------------------------| (Tremelo Picking)
F|---------------------------------------------------------------------------|
C|---------------------------------------------------------------------------|      2 times
G|-5-----8-----7-----4-----8-----7-----1-----4-----1-----4-----5-----8-----7-|
C|---------------------------------------------------------------------------|

D|---------------------------------------------------------------------------|  \
A|---------------------------------------------------------------------------|   |
F|---------------------------------------------------------------------------|   |
C|----------------5-7-8-7-5----------------5-7-8-7-5-------------------------|   |
G|-5--------5-7-8-----------5--------5-7-8-----------8-----------------------|   |
C|---000000-------------------000000-----------------------------------------|   |
     ------                   ------                                             |  6 times
D|---------------------------------------------------------------------------|   |
A|---------------------------------------------------------------------------|   |
F|---------------------------------------------------------------------------|   |
C|----------10-8-7-8-7-----------------5/7-5---------------------------------|   |
G|---------------------8-10-8-7----------------------------------------------|   |
C|---888888---------------------777777---------------------------------------|  /
     ------                     ------  

I'm Working On Tabbing The Rest Out, Im Not Even Sure If This 
Is Right But Please Let Me Know If Theres Anything I Tabbed Out Wrong And I'll Correct it :) 
I'll Have This Updated As Soon As I Figured The Rest Out   :)

Also, please rate and comment, it would be nice to know if im doing a good job or not  =]
Tap to rate this tab
 
# A B C D E F G H I J K L M N O P Q R S T U V W X Y Z