Song name
# A B C D E F G H I J K L M N O P Q R S T U V W X Y Z

The Crimson Armada - Conviction tab


Conviction - The Crimson Armada

-----------------------------------------------------------------

Tabbed by: Trevor Winchenbaugh
Email:belowcreationlg@aim.com

For further help look at http://www.youtube.com/watch?v=MdOACk2Dcnw

Tuning: Drop C

D|---------------------------------------------------------------|
A|---------------------------------------------------------------|
F|---------------------------------------------------------------|
C|---------------------------------------------------------------|
G|---------------------------------------------------------------|
C|-3h5-0---0-0-0-0-0--0--0-0-0------0-0-0-0--0---3h5-0-0-1-1-1-1-|

D|---------------------------------------------------------------|
A|---------------------------------------------------------------|
F|---------------------------------------------------------------|
C|---------------------------------------------------------------|
G|---------------------------------------------------------------|
C|-3h5-0---0-0-0-0-0--0--0-0-0------0-0-0-0--0---3h5-0-0-1-1-1-1-|

D|---------------------------------------------------------------|
A|---------------------------------------------------------------|
F|---------------------------------------------------------------|
C|---------------------------------------------------------------|
G|------------------------------------------------4*-------------|
C|-3h5-0---0-0-0-0-0--0--10h12-0------0-0-0-0--0------0-0-1-1-1-1|

D|---------------------------------------------------------------|
A|---------------------------------------------------------------|
F|---------------------------------------------------------------|
C|---------------------------------------------------------------|
G|---------------------------------------------------------------|
C|-3h5-0---0-0-0-0-0--0--0-0-0------*drums*------3h5-0-0-1-1-1-1-|

D|---------------------------------------------------------------|
A|---------------------------------------------------------------|
F|---------------------------------------------------------------|
C|-0-------------------------------------------------------------|
G|-0-let ring----------------------------------------------------|
C|-0-------------------------------------------------------------|





D|---------------------------------------------------------------|
A|---------------------------------------------------------------|
F|---------------------~~~~~~~~~~~~~--------------3--5-----------|
C|-3------6p5-------pm1-1-1-1-1-1-1-3------6p5---------6-5-3-----|
G|-3------------6---pm1-1-1-1-1-1-1-3----------6------------6-3-1|
C|-3--3-3-----3-----pm1-1-1-1-1-1-1-3--3-3-----------------------|

D|---------------------------------------------------------------|
A|---------------------------------------------------------------|
F|---------------------~~~~~~~~~~~~~--------------3--5-----------|
C|-3------6p5-------pm1-1-1-1-1-1-1-3------6p5---------6-5-3-----|
G|-3------------6---pm1-1-1-1-1-1-1-3----------6------------6-3-1|
C|-3--3-3-----3-----pm1-1-1-1-1-1-1-3--3-3-----------------------|

D|---------------------------------------------------------------|
A|---------------------------------------------------------------|
F|---------------------~~~~~~~~~~~~~--------------3--5-----------|
C|-3------6p5-------pm1-1-1-1-1-1-1-3------6p5---------6-5-3-----|
G|-3------------6---pm1-1-1-1-1-1-1-3----------6------------6-3-1|
C|-3--3-3-----3-----pm1-1-1-1-1-1-1-3--3-3-----------------------|

D|---------------------------------------------------------------|
A|---------------------------------------------------------------|
F|---------------------~~~~~~~~~~~~~--------------3--5-----------|
C|-3------6p5-------pm1-1-1-1-1-1-1-3------6p5---------6-5-3-----|
G|-3------------6---pm1-1-1-1-1-1-1-3----------6------------6-3-1|
C|-3--3-3-----3-----pm1-1-1-1-1-1-1-3--3-3-----------------------|

D|---------------------------------------------------------------|
A|---------------------------------------------------------------|
F|---------------------~~~~~~~~~~~~~--------------3--5-----------|
C|-3------6p5-------pm1-1-1-1-1-1-1-3------6p5---------6-5-3-----|
G|-3------------6---pm1-1-1-1-1-1-1-3----------6------------6-3-1|
C|-3--3-3-----3-----pm1-1-1-1-1-1-1-3--3-3-----------------------|

D|---------------------------------------------------------------|
A|---------------------------------------------------------------|
F|---------------------~~~~~~~~~~~~~--------------3--5-----------|
C|-3------6p5-------pm1-1-1-1-1-1-1-3------6p5---------6-5-3-----|
G|-3------------6---pm1-1-1-1-1-1-1-3----------6------------6-3-1|
C|-3--3-3-----3-----pm1-1-1-1-1-1-1-3--3-3-----------------------|


D|---------------------------------------------------------------|
A|---------------------------------------------------------------|
F|---------------------------------------------------------------|
C|-3---3------3---1---1-----1---3---3-----3---1---1-----1--------|
G|-3---3------3---1---1-----1---3---3-----3---1---1-----1--------|
C|-3---3------3---1---1-----1---3---3-----3---1---1-----1--------|

D|---------------------------------------------------------------|
A|---------------------------------------------------------------|
F|--3/5-5-5-5-5-8p7----8p7-7---------3---3---3---7---7---5---5---|
C|------------------8---------8--5-5---5---5---5---5---5---5-----|
G|---------------------------------------------------------------|
C|---------------------------------------------------------------|

D|---------------------------------------------------------------|
A|---------------------------------------------------------------|
F|--3/5-5-5-5-5-8p7----8p7-7---------7---7---7---10---10---8---8-|
C|------------------8---------8--8-8---8---8---8----8----8---8---|
G|---------------------------------------------------------------|
C|---------------------------------------------------------------|

D|---------------------------------------------------------------|
A|---------------------------------------------------------------|
F|--3/5-5-5-5-5-8p7----8p7-7---------3---3---3---7---7---5---5---|
C|------------------8---------8--5-5---5---5---5---5---5---5-----|
G|---------------------------------------------------------------|
C|---------------------------------------------------------------|

D|-------------------------------------|
A|----------------------------8/11-----|
F|--3/5-5-5-5-5-8p7----8p7-7-----------|
C|------------------8------------------|
G|-------------------------------------|
C|-------------------------------------|

D|---------------------------------------------------------------|
A|-------11----11----11----13----13----13/15---------------------|
F|-12-12----12----12----12----12----12---------------------------|
C|---------------------------------------------------------------|
G|---------------------------------------------------------------|
C|---------------------------------------------------------------|

D|---------------------------------------------------------------|
A|---------------------------------------------------------------|
F|---------------------------------------------------------------|
C|---------------------------------------------------------------|
G|---------------------------------------------------------------|
C|-000-000-000-000-000-----000-000-000---3h5p0-3--5--------------|

D|---------------------------------------------------------------|
A|---------------------------------------------------------------|
F|---------------------------------------------------------------|
C|---------------------------------------------------------------|
G|---------------------------------------------------------------|
C|-000-000-000-000-000-----000-000-000---------------------------|
D|---------------------------------------------------------------|
A|---------------------------------------------------------------|
F|---------------------------------------------------------------|
C|---------------------------------------------------------------|
G|---------------------------------------------------------------|
C|-000-000-000-000-000-----000-000-000---3h5p0-3--5--------------|

D|---------------------------------------------------------------|
A|---------------------------------------------------------------|
F|---------------------------------------------------------------|
C|---------------------------------------------------------------|
G|---------------------------------------------------------------|
C|-000-000-000-000-000-----000-000-000---------------------------|

D|---------------------------------------------------------------|
A|---------------------------------------------------------------|
F|---------------------------------------------------------------|
C|---------------------------------------------------------------|
G|---------------------------------------------------------------|
C|-3h5-0---0-0-0-0-0--0--0-0-0------0-0-0-0--0---3h5-0-0-1-1-1-1-|

D|---------------------------------------------------------------|
A|---------------------------------------------------------------|
F|---------------------------------------------------------------|
C|---------------------------------------------------------------|
G|---------------------------------------------------------------|
C|-3h5-0---0-0-0-0-0--0--0-0-0------0-0-0-0--0---3h5-0-0-1-1-1-1-|

D|---------------------------------------------------------------|
A|---------------------------------------------------------------|
F|---------------------------------------------------------------|
C|---------------------------------------------------------------|
G|-----------------------------------------------6*--------------|
C|-10h12-0-----0-0-0-0--0--12h15-0---0-0-0-0--0-----0-0-b5*(8)---|
	Pinch+Bend on 5 so itís at 8, and bend back down to 5^^^

D|---------------------------------------------------------------|
A|---------------------------------------------------------------|
F|---------------------------------------------------------------|
C|---------------------------------------------------------------|
G|---------------------------------------------------------------|
C|-3h5-0----0-0-0-0--0--10h12-0--0-0-0-0--0----------------------|

D|---------------------------------------------------------------|
A|---------------------------------------------------------------|
F|--3/5-5-5-5-5-8p7----8p7-7---------3---3---3---7---7---5---5---|
C|------------------8---------8--5-5---5---5---5---5---5---5-----|
G|---------------------------------------------------------------|
C|---------------------------------------------------------------|

D|---------------------------------------------------------------|
A|---------------------------------------------------------------|
F|--3/5-5-5-5-5-8p7----8p7-7---------7---7---7---10---10---8---8-|
C|------------------8---------8--8-8---8---8---8----8----8---8---|
G|---------------------------------------------------------------|
C|---------------------------------------------------------------|

D|---------------------------------------------------------------|
A|---------------------------------------------------------------|
F|--3/5-5-5-5-5-8p7----8p7-7---------3---3---3---7---7---5---5---|
C|------------------8---------8--5-5---5---5---5---5---5---5-----|
G|---------------------------------------------------------------|
C|---------------------------------------------------------------|

D|-------------------------------------|
A|----------------------------8/11-----|
F|--3/5-5-5-5-5-8p7----8p7-7-----------|
C|------------------8------------------|
G|-------------------------------------|
C|-------------------------------------|

D|---------------------------------------------------------------|
A|-------11----11----11----13----13----13/15---------------------|
F|-12-12----12----12----12----12----12---------------------------|
C|---------------------------------------------------------------|
G|---------------------------------------------------------------|
C|---------------------------------------------------------------|

D|---------------------------------------------------------------|
A|---------------------------------------------------------------|
F|-10-----10---10---10-----10---10---10--------------------------|
C|----6-6----6----6----6-6----6----6----6------------------------|
G|---------------------------------------------------------------|
C|---------------------------------------------------------------|

D|---------------------------------------------------------------|
A|---------------------------------------------------------------|
F|-8-----8---8---8-----8---8---8---------------------------------|
C|---8-8---8---8---8-8---8---8---8-------------------------------|
G|---------------------------------------------------------------|
C|---------------------------------------------------------------|

D|---------------------------------------------------------------|
A|---------------------------------------------------------------|
F|-5-----5---5---5-----5---5---5---------------------------------|
C|---6-6---6---6---6-6---6---6---6-------------------------------|
G|---------------------------------------------------------------|
C|---------------------------------------------------------------|
D|---------------------------------------------------------------|
A|---------------------------------------------------------------|
F|-3-----3---3---3-----3---3-5-3---------------------------------|
C|---1-1---1---1---1-1---1---------------------------------------|
G|---------------------------------------------------------------|
C|---------------------------------------------------------------|

D|---------------------------------------------------------------|
A|---------------------------------------------------------------|
F|-10-----10---10---10-----10---10---10--------------------------|
C|----6-6----6----6----6-6----6----6----6------------------------|
G|---------------------------------------------------------------|
C|---------------------------------------------------------------|

D|---------------------------------------------------------------|
A|---------------------------------------------------------------|
F|-8-----8---8---8-----8---8---8---------------------------------|
C|---8-8---8---8---8-8---8---8---8-------------------------------|
G|---------------------------------------------------------------|
C|---------------------------------------------------------------|

D|---------------------------------------------------------------|
A|---------------------------------------------------------------|
F|-5-----5---5---5-----5---5---5---------------------------------|
C|---6-6---6---6---6-6---6---6---6-------------------------------|
G|---------------------------------------------------------------|
C|---------------------------------------------------------------|
D|---------------------------------------------------------------|
A|---------------------------------------------------------------|
F|-3-----3---3---3-----3---3-5-3---------------------------------|
C|---1-1---1---1---1-1---1---------------------------------------|
G|---------------------------------------------------------------|
C|---------------------------------------------------------------|

D|---------------------------------------------------------------|
A|---------------------------------------------------------------|
F|---------------------~~~~~~~~~~~~~--------------3--5-----------|
C|-3------6p5-------pm1-1-1-1-1-1-1-3------6p5---------6-5-3-----|
G|-3------------6---pm1-1-1-1-1-1-1-3----------6------------6-3-1|
C|-3--3-3-----3-----pm1-1-1-1-1-1-1-3--3-3-----------------------|

D|---------------------------------------------------------------|
A|---------------------------------------------------------------|
F|---------------------~~~~~~~~~~~~~--------------3--5-----------|
C|-3------6p5-------pm1-1-1-1-1-1-1-3------6p5---------6-5-3-----|
G|-3------------6---pm1-1-1-1-1-1-1-3----------6------------6-3-1|
C|-3--3-3-----3-----pm1-1-1-1-1-1-1-3--3-3-----------------------|

D|---------------------------------------------------------------|
A|---------------------------------------------------------------|
F|---------------------~~~~~~~~~~~~~--------------3--5-----------|
C|-3------6p5-------pm1-1-1-1-1-1-1-3------6p5---------6-5-3-----|
G|-3------------6---pm1-1-1-1-1-1-1-3----------6------------6-3-1|
C|-3--3-3-----3-----pm1-1-1-1-1-1-1-3--3-3-----------------------|

D|---------------------------------------------------------------|
A|---------------------------------------------------------------|
F|---------------------~~~~~~~~~~~~~--------------3--5-----------|
C|-3------6p5-------pm1-1-1-1-1-1-1-3------6p5---------6-5-3-----|
G|-3------------6---pm1-1-1-1-1-1-1-3----------6------------6-3-1|
C|-3--3-3-----3-----pm1-1-1-1-1-1-1-3--3-3-----------------------|

D|---------------------------------------------------------------|
A|---------------------------------------------------------------|
F|---------------------------------------------------------------|
C|---------------------------------------------------------------|
G|---------------------------------------------------------------|
C|-000-000-000-000-000-------------------------------------------|

D|---------------------------------------------------------------|
A|---------------------------------------------------------------|
F|---------------------------------------------------------------|
C|---------------------------------------------------------------|
G|---------------------------------------------------------------|
C|-000-000-000-000-000-----000-000-000---3h5p0-3--5--------------|

D|---------------------------------------------------------------|
A|---------------------------------------------------------------|
F|---------------------------------------------------------------|
C|---------------------------------------------------------------|
G|---------------------------------------------------------------|
C|-000-000-000-000-000-----000-000-000---------------------------|
D|---------------------------------------------------------------|
A|---------------------------------------------------------------|
F|---------------------------------------------------------------|
C|---------------------------------------------------------------|
G|---------------------------------------------------------------|
C|-000-000-000-000-000-----000-000-000---3h5p0-3--5--------------|

D|---------------------------------------------------------------|
A|---------------------------------------------------------------|
F|---------------------------------------------------------------|
C|---------------------------------------------------------------|
G|---------------------------------------------------------------|
C|-000-000-000-000-000-----000-000-000---------------------------|



| /  slide up
| \  slide down
| h  hammer-on
| p  pull-off
| ~  vibrato
| +  harmonic
| x  Mute note
Tap to rate this tab
 
# A B C D E F G H I J K L M N O P Q R S T U V W X Y Z