Song name
# A B C D E F G H I J K L M N O P Q R S T U V W X Y Z

The Crisis - Erase Racism tab

Help us improve GuitareTab! Take a short survey!
Intro Guitar 1 (0:00 - 0:28) play 6X on the 6th time ring the last note
e|---------------------------------------------------------------------------|
B|---------------------------------------------------------------------------|
G|----2---3-----2-----3-3h5p3-2-------2---3-----2-----3---2---0--2~----------|
D|0-0---0---0-0---0-0-------------0-0---0---0-0---0-0---0---0----------------|
A|---------------------------------------------------------------------------|
E|---------------------------------------------------------------------------|
pm. .   .   . .   . .             . .   .   . .   . .   .   .

Intro Guitar 2 (0:00 - 0:28) Play 
e|---------------------------------------------------------------------------|
B|---------------------------------------------------------------------------|
G|2-2-2--2-2-2---------------------------------------------------------------|
D|0-0-0--0-0-0-3-3-3--2-2-2--------------------------------------------------|
A|-------------1-1-1--0-0-0--------------------------------------------------|
E|---------------------------------------------------------------------------|
pm. .    . .   . .    . .

Verse Guitar 1-2 (0:31 - 0:47) Play 2X
e|---------------------------------------------------------------------------|
B|---------------------------------------------------------------------------|
G|---------------------------------------------------------------------------|
D|------------88887777-------------888877------------------------------------|
A|77777777777766665555-777777777777666655-88---------------------------------|
E|555555555555---------555555555555-------66---------------------------------|

Chorus Guitar 1-2 (0:48 - 1:03) Play 4X
e|---------------------------------------------------------------------------|
B|---------------------------------------------------------------------------|
G|---------------------------------------------------------------------------|
D|------88888-------55555----------------------------------------------------|
A|55555-66666-88888-33333----------------------------------------------------|
E|33333-------66666----------------------------------------------------------|

Verse Guitar 1-2 (1:04 - 1:20) Play 2X
e|---------------------------------------------------------------------------|
B|---------------------------------------------------------------------------|
G|---------------------------------------------------------------------------|
D|------------88887777-------------888877------------------------------------|
A|77777777777766665555-777777777777666655-88---------------------------------|
E|555555555555---------555555555555-------66---------------------------------|

Chorus Guitar 1-2 (1:21 - 1:36) Play 4X
e|---------------------------------------------------------------------------|
B|---------------------------------------------------------------------------|
G|---------------------------------------------------------------------------|
D|------88888-------55555----------------------------------------------------|
A|55555-66666-88888-33333----------------------------------------------------|
E|33333-------66666----------------------------------------------------------|

Bridge Intro Guitar 1-2 (1:37 - 1:41) Play 1X
e|----------|
B|----------|                         
G|----------|
D|----------|
A|5~-----5--|
E|3~-----3--|

Bridge Guitar 2 (1:45 - 2:00) Play 3X
e|---------------------------------------------------------------------------|
B|---------------------------------------------------------------------------|
G|---------------------------------------------------------------------------|
D|--------------8-88-8-88-----------5-55-5-55--------------------------------|
A|12\\5-55-5-55-6-66-6-66-8-88-8-88-3-33-3-33--------------------------------|
E|10\\3-33-3-33-----------6-66-6-66------------------------------------------|
pm      ..   ..   ..   ..   ..   ..   ..   ..
Bridge Guitar 1 (1:50 - 2:00) Play 2X
e|---------------------------------------------------------------------------|
B|---------------------------------------------------------------------------|
G|---------------8-88-8*-88------------5-55-5*-55----------------------------|
D|12\\5-55-5*-55------------8-88-8*-88---------------------------------------|
A|---------------------------------------------------------------------------|
E|---------------------------------------------------------------------------|
pm      ..    ..   ..    ..   ..    ..   ..    ..

Chorus Guitar 1-2 (2:01 - 2:15) Play 4X
e|---------------------------------------------------------------------------|
B|---------------------------------------------------------------------------|
G|---------------------------------------------------------------------------|
D|------88888-------55555----------------------------------------------------|
A|55555-66666-88888-33333----------------------------------------------------|
E|33333-------66666----------------------------------------------------------|

Outro Guitar 1-2 (2:16 - 2:32) Play 4X
e|---------------------------------------------------------------------------|
B|---------------------------------------------------------------------------|
G|---------------------------------------------------------------------------|
D|77777----------------------------------------------------------------------|
A|55555-88888-77777-88888----------------------------------------------------|
E|------66666-55555-66666----------------------------------------------------|

End Guitar 1-2 (2:32) Play 1X 
e|----------|
B|----------|                         
G|----------|
D|7~--------|
A|5~--------|
E|----------|

http://profile.myspace.com/index.cfm?fuseaction=user.viewprofile&friendID=89289182
Related for Erase Racism tab