Song name
# A B C D E F G H I J K L M N O P Q R S T U V W X Y Z

The Crisis - Blood Burden tab

Official Crisis Band Site: www.crisissite.com
Record Label: The End Records (www.theendrecords.com)
Blood Burden - Crisis
Tabbed by: SaintEve
Email: strife2sorrow@yahoo.com

Tuning: DAFCGC(Drop-C)

Guitar I
presto-moderato           [0:00-0:16]
D|----------------------------------|
A|----------------------------------|
F|*--------------------------------*| Guitar I repeats this
C|*-----------------------------5--*| through the intro.
G|--5-5-5-7-7-7-5-5-5-8-8-8-5-5-----|         [x7]
C|----------------------------------|
  pm. . . . . . . . . . . . . . .

Guitar I(cont.)
presto-moderato      [0:17-0:19]
D|-----------------------------|
A|-----------------------------|
F|-----------------------------| This comes at the 
C|--------------------------5b-| end of the intro.
G|--5-5-5-7-7-7-5-5-5-8-8-8----|       [x1]
C|-----------------------------|
  pm. . . . . . . . . . . . . 


Guitar II
presto-moderato             [0:05-0:16]
D|------------------------------------|
A|------------------------------------|
F|*----------------------------------*| Guitar II will come in
C|*----------------------------------*| with heavier mutes.
G|------------------------------------|         [x5]
C|---5-5-5-7-7-7-5-5-5-8-8-8-5-5-10---|
   pm. . . . . . . . . . . . . . .

Guitar II(cont.)
presto-moderato       [0:17-0:19]
D|------------------------------|
A|------------------------------|
F|------------------------------| Heavy muting on 
C|------------------------------| the final note bend.
G|------------------------------|        [x1]
C|--5-5-5-7-7-7-5-5-5-8-8-8-10b-|
  pm. . . . . . . . . . . . .


Guitar I
presto-moderato                  [0:20-0:58]
D|-------------------|---------------------| Guitar I repeats
A|--------[x3]-------|--------[x1]---------| the 1st measure 3x,
F|*------------------|--------------------*| then plays the next
C|*-0002220003330005-|-0002220003330005\2-*| measure 1x.
G|--0002220003330005-|-0002220003330005\2--| Don't mute this part.
C|--0002220003330005-|-0002220003330005\2--| Repeat this part:[x4]

Guitar II
presto-moderato                  [0:20-0:58]
D|-------------------|---------------------| Guitar II repeats
A|--------[x3]-------|--------[x1]---------| the 1st measure 3x,
F|*------------------|--------------------*| then plays the next
C|*------------------|--------------------*| measure 1x.
G|-55577755588855510-|-55577755588855510\7-| Heavy mute this part.
C|-55577755588855510-|-55577755588855510\7-| Repeat this part:[x4]
 pm................    ................  


Guitar I
presto-moderato             [0:59-1:15]
D|------------------------------------|
A|------------------------------------|
F|*----------------------------------*| Kinda like
C|*----------------------------------*| the beginning.
G|---5-5-5-7-7-7-5-5-5-8-8-8-5-5-10---|     [x7]
C|------------------------------------|
   pm. . . . . . . . . . . . . . .

Guitar I(cont.)
presto-moderato          [1:16-1:18]
D|---------------------------------|
A|---------------------------------|
F|*-------------------------------*| Mute the bend.
C|*-------------------------------*|     [x1]
G|---5-5-5-7-7-7-5-5-5-8-8-8-10b---|
C|---------------------------------|
   pm. . . . . . . . . . . . . 

Guitar II
presto-moderato             [1:04-1:15]
D|------------------------------------|
A|------------------------------------|
F|*----------------------------------*| Use heavier mutes
C|*----------------------------------*| than Guitar I.
G|------------------------------------|       [x5]
C|---5-5-5-7-7-7-5-5-5-8-8-8-5-5-10---|
   pm. . . . . . . . . . . . . . .

Guitar II(cont.)
presto-moderato        [1:16-1:18]
D|-------------------------------|
A|-------------------------------|
F|-------------------------------| Heavy muting on 
C|-------------------------------| the final note bend.
G|-------------------------------|        [x1]
C|--5-5-5-7-7-7-5-5-5-8-8-8-10b--|
  pm. . . . . . . . . . . . .


Guitar I
presto-moderato                  [1:19-1:37]
D|-------------------|---------------------| Guitar I repeats
A|--------[x3]-------|--------[x1]---------| the 1st measure 3x,
F|*------------------|--------------------*| then plays the next
C|*-0002220003330005-|-0002220003330005\2-*| measure 1x.
G|--0002220003330005-|-0002220003330005\2--| Mute this part.
C|--0002220003330005-|-0002220003330005\2--| Repeat this part:[x2]
  pm................   ................

Guitar II
presto-moderato                  [1:19-1:37]
D|-------------------|---------------------| Guitar II repeats
A|--------[x3]-------|--------[x1]---------| the 1st measure 3x,
F|*------------------|--------------------*| then plays the next
C|*------------------|--------------------*| measure 1x.
G|-55577755588855510-|-55577755588855510\7-| Heavy mute this part.
C|-55577755588855510-|-55577755588855510\7-| Repeat this part:[x2]
 pm................    ................


[1:38-2:59]
Unfortunately, I haven't tabbed the rest of the song.
I tabbed it by ear, so the slides really make it hard
to tell what notes they are playing. But I will try to
figure it out. If anyone knows it, can you please let
me know. Thanks, and please rate this tab.

| b  bend
| /  slide up
| \  slide down
| h  hammer-on
| p  pull-off
| ~  vibrato
| +  harmonic
| x  mute note
Tap to rate this tab
# A B C D E F G H I J K L M N O P Q R S T U V W X Y Z