Guitaretab - guitar tabs
Song name
# A B C D E F G H I J K L M N O P Q R S T U V W X Y Z

The Crisis - Rocky Road Ice Cream tab

The Crisis 

Rocky Road Ice Cream
intro
guitar 2
E||--------------------|--------------------|--------------------|
B||-p.m.--------------|--------------------|--------------------|
G||--------------------|--------------------|--------------------|
D||-5-5-5-5-5-5-5-5-5--|-7-7-7-7-7-7-7-7-7--|-101010101010101010-|
A||-5-5-5-5-5-5-5-5-5--|-7-7-7-7-7-7-7-7-7--|-101010101010101010-|
E||-3-3-3-3-3-3-3-3-3--|-5-5-5-5-5-5-5-5-5--|-8-8-8-8-8-8-8-8-8--|

E||--------------------|--------------------|--------------------|
B||---p.m.-------------|--------------------|--------------------|
G||--------------------|--------------------|--------------------|
D||-121212121212121212-|--------------------|--------------------|
A||-121212121212121212-|--------------------|--------------------|
E||-101010101010101010-|--------------------|--------------------|

guitar 1
E||--------------------|--------------------|--------------------|
B||-p.m.--------------|--------------------|--------------------|
G||--------------------|--------------------|--------------------|
D||-5-5-5-5-5-5-5-5-5--|-7-7-7-7-7-7-7-7-7--|-101010101010101010-|
A||-5-5-5-5-5-5-5-5-5--|-7-7-7-7-7-7-7-7-7--|-101010101010101010-|
E||-3-3-3-3-3-3-3-3-3--|-5-5-5-5-5-5-5-5-5--|-8-8-8-8-8-8-8-8-8--|

E||--------------------|--------------------|--------------------|
B||---p.m.-------------|--------------------|--------------------|
G||--------------------|--------------------|--------------------|
D||-121212121212121212-|--------------------|--------------------|
A||-121212121212121212-|--------------------|--------------------|
E||-101010101010101010-|--------------------|--------------------|
[ Tab from: http://www.guitaretab.com/t/the-crisis/89023.html ]
Verse
guitar 2
E||--------------------|--------------------|--------------------|
B||-p.m.--------------|--------------------|--------------------|
G||--------------------|--------------------|--------------------|
D||-5-5-5-5-5-5-5-5-5--|-7-7-7-7-7-7-7-7-7--|-101010101010101010-|
A||-5-5-5-5-5-5-5-5-5--|-7-7-7-7-7-7-7-7-7--|-101010101010101010-|
E||-3-3-3-3-3-3-3-3-3--|-5-5-5-5-5-5-5-5-5--|-8-8-8-8-8-8-8-8-8--|

E||--------------------|--------------------|--------------------|
B||---p.m.-------------|--------------------|--------------------|
G||--------------------|--------------------|--------------------|
D||-121212121212121212-|--------------------|--------------------|
A||-121212121212121212-|--------------------|--------------------|
E||-101010101010101010-|--------------------|--------------------|


guitar 1
E||--------------------|--------------------|--------------------|
B||-------------------|--------------------|--------------------|
G||--------------------|--------------------|--------------------|
D||-5-5----------------|-7-7----------------|-1010---------------|
A||-5-5----------------|-7-7----------------|-1010---------------|
E||-3-3----------------|-5-5----------------|-8-8----------------|

E||--------------------|--------------------|--------------------|
B||--------------------|--------------------|--------------------|
G||--------------------|--------------------|--------------------|
D||-1212---------------|--------------------|--------------------|
A||-1212---------------|--------------------|--------------------|
E||-1010---------------|--------------------|--------------------|


Chorus
Both guitars
E||--------------------|--------------------|--------------------|
B||-------------------|--------------------|--------------------|
G||--------------------|--------------------|--------------------|
D||-5---5---5---5---5--|-7---7---7---7---7--|-10-10-10-10--10-|
A||-5---5---5---5---5--|-7---7---7---7---7--|-10-10-10-10--10-|
E||-3---3---3---3---3--|-5---5---5---5---5--|-8---8---8---8---8--|

E||--------------------|--------------------|--------------------|
B||--------------------|--------------------|--------------------|
G||--------------------|--------------------|--------------------|
D||-12-12-12-12--12-|--------------------|--------------------|
A||-12-12-12-12--12-|--------------------|--------------------|
E||-10-10-10-10--10-|--------------------|--------------------|

Related for Rocky Road Ice Cream tab