Song name
# A B C D E F G H I J K L M N O P Q R S T U V W X Y Z

The Crookes - Godless Girl chords

Highlighted       Show chord diagrams
The Crookes - Godless Girl


D, Bm
INTRO

	D

E-|---------------------------| (2x)
B-|---------------------------|
G-|-----7777--7-6-7-6---------|
D-|--------------------9-7----|
A-|---------------------------|
E-|---------------------------|

	Bm

E-|---------------------------| (2x)
B-|-----7-7-7---7/8/7---------|
G-|---------------------7~----|
D-|---------------------------|
A-|---------------------------|
E-|---------------------------|



D       D
A life, A wreck.
                Bm
Charming is her dress...
...and the nape of her neck

D       D		
My ink's awry, 
                Bm
in the blink of an eye
It leaves, by the by.

D              D                  Bm
Take off old threads by her tomb of a bed.
Am I right in the head?
D              D                  Bm
And we'll pretend like we're angry young men...
...lest we should forget.

Em      G
Yea... 	Yea...

D                      D                  Bm
Angst marrs your eyes (such unclear warning signs).
Am I evil? Am I kind?
D                      D                     Bm
My heart's cold drone will outlive these faded bones...
...but I won't always be alone, I won't always feel this...

Em		G

A                G             D
How she now sits oddly with the times. 
	
D                        Em          Bm
I was lost, was lost, was lost and so ashamed.
Tap to rate this tab
# A B C D E F G H I J K L M N O P Q R S T U V W X Y Z