Song name
# A B C D E F G H I J K L M N O P Q R S T U V W X Y Z

The Cross - On Top Of The World Ma tab

Sorry that last tab was slightly messedup  in the beginning of the solo so i fixed it up 
a little

Heyy Everyone this is my first tab ^_^ :3 Hope you like it!!!
Please comment and leave me feedback on how i did andd...ya enjoy!!!

Note: The occasional bits of lyrics are to help you know where you
are in the song and I think it should be pretty acurate, seeing as I spent
5 hours trying to tab it exactly right, (lol) but if anything seems wrong,
again please comment and tell me what :)

Key:
h = hammer on
p = pull-off
b = bend to indicated tone
r = return bend (AKA bend back to original note)
v = vibrato (optional)
/\ = slide up or down
[x] = mute the string
^ = sustain bent note

Alright so here it is hope you like it!
----------------------------------------------------------------------


LYRICS
Guitar 2 repeats this x11*
Guitar 1 repeates this x3 and then does
a slide thing down the B string for 1
measure (shown under main riff)
                 Intro                                                                |<--|
|--------------------------------------|--------------------------------------------------|
|--------------------------------------|--------------------------------------------------|
|---------------------9--------9-----9-|------------------9------9------9-----------------|
|------0---0-0-0h2----9--------9-----9-|---0---0-0-0h2----9------9------9-----------------|
|--0h2---2------------7--------7-----7-|0h2---2-----------7------7------7-----------------|
|--------------0--0-0---0-0-0----0-0---|------------0-0-0--0-0-0---0-0--------------------|

GUITAR 1 Mini part
B string --17\0--*for about 1 measure and return to main riff*

*After 11x main riff go to*
|-------------------------------------------------------------------------------|
|-------------------------------------------------------------------------------|
|---------------------------------------------------------------9-[x]-[x]-9-----|
|--7-7-------7----7-7-------7----7-7-------7--------------------9-[x]-[x]-9-----|
|--7-7-------7----7-7-------7----7-7-------7-------7-----7------7-[x]-[x]-7h9---|
|--5-5-7/8---5----5-5-7/8---5----5-5-7/8---5----8h9--8h9----8h9-----------------|

"...of witch craft."                                            "...what you get..."


|------------------------|
|------------------------|
|--[x]-[x]--9-[x]-[x]-9--|           *Repeat main riff once, then go to next part*
|--[x]-[x]--9-[x]-[x]-9--|
|--[x]-[x]--7-[x]-[x]-7--|
|------------------------|



|--------------------------------------------------------|
|--------------------------------------------------------|
|---------------------------6----------------------------|
|--5--5--5-5-5/7--7--7-7-7--7-------------0----0-0-0h2---|
|--5--5--5-5-5/7--7--7-7-7--7---------0h2---2------------|
|--3--3--3-3-3/5--5--5-5-5--5-----------------------0----|

"...voodoo child..."                             "...gates of Hell."



Then follow along and repeat everything again till the end of the
 next chorus when the solo starts, or after Roger Taylor sings:

"...mad, bad and dangerous to know!"


SOLO
|-------------------------------------------------------------------------------------|
|-------------------------------------------------------------------------------------|
|-----------------------------------------------------------------9-------------------|
|-----------------------5b6--------5b6---------------------7b9--^9--9r7-/5------------|
|------5---7(v)-7(v)-5------7--5---5-----7p5---------------------------------7(v------|
|--5h7---7------------7h----------7----------5-3(b4 optional)-0-----------------------|


*For this next part you can just play 12 or 10h12 instead of 10b12 if you want*

|-----------10------10------10-9h10---10-9h10 --10-9h10---10---9-------10-9----|
|--10b12-^12---10b12---10b12-------12--------12--------12---12--10b12----------|
|------------------------------------------------------------------------------|
|------------------------------------------------------------------------------|
|------------------------------------------------------------------------------|
|------------------------------------------------------------------------------|

|--------10-9------10-9-------10-9-------10h12-----15---15--15--19-17-16--15|
|--10b12-----10b12------10b12------10b12--------------15--14----------------|
|---------------------------------------------------------------------------|
|---------------------------------------------------------------------------|
|---------------------------------------------------------------------------|
|---------------------------------------------------------------------------|

|-12----------------------------------------------------------------------|
|---16--15-12---------12-14h15p14--12-14h15p14-12-14-15-14-12----12-------|
|------------15-15p14-12-14h15p14--12-14h15p14-12-14-15-14-12-12-12---12--|
|-------------------------------------------------------------14------14--|
|-------------------------------------------------------------------------|
|-------------------------------------------------------------------------|
splits into two parts*
GUITAR 1
|--12(1212)--14(1414)--15(1515)--14(1414)-| --12(v)-------15(v)---------------|
|--12-------14-------15-------14------|---------------------------------------|
|--12-------14-------15-------14------|---------------------------------------|
|-------------------------------------|---------------------------------------|
|-------------------------------------|---------------------12(v)-------------|
|-------------------------------------|---------------------------------------|

GUITAR 2
|----------------------------|
|----------------------------|
|--------------------------6-|
|-5--5--5-5-5/7--7--7-7-7--7-|
|-5--5--5-5-5/7--7--7-7-7--7-|
|-3--3--3-3-3/5--5--5-5-5--5-|

Then its
D |-----0---0-0-0-0-0-0-0-0-0h2-------|
A |--0h2--2---------------------------|
E |--------------------------0--0-0---|

And its back to the riff in the beginning, only this time, you don't go on.
you just keep on playing till the end of the song, where theres a slight
change that goes like this.

G |----------------7-9|
D |-----0--0--0----7-9|         I know that theres some soloing done in between but
A |--0h2--2--2--2--5-7|  its really complicated and i haven't it out yet. However, if I
do, then
                                                                Ill be sure to post it
on here and ya. Hope you liked it!
Tap to rate this tab
 
# A B C D E F G H I J K L M N O P Q R S T U V W X Y Z