Song name
# A B C D E F G H I J K L M N O P Q R S T U V W X Y Z

The Crowns - The Lovemachine tab

Song:  The LoveMachine
Band: The Crowns

Tabbed by: The Knox
Email: dzafuto@gmail.com

Tuning: EADGBe

Intro
e|---------------------------------------|
B|---------------------------------------|
G|---------------------------------------|
D|-----9~--------------------------------|
A|--7--7~--2-4-2-5--4--2~-2-4-2----------| x4
E|---------------------------------------|

Verse
e|---------------------------------------|
B|---------------------------------------|
G|---------------------------------------|
D|---------------------------------------|
A|--7--7~--2-4-2-5--4--2~-2-4-2----------| x4
E|---------------------------------------|

e|------------------------|
B|------------------------|
G|------------------------|
D|-2-2-2-2-2-2-2-2-4------|
A|-0-0-0-0-0-0-0-0-2------|
E|------------------------|

Chorus
e|-----------------------------|
B|-----------------------------|
G|-----------------------------|
D|-----4~--7~------4-----------|
A|-2~--2~--5~--7~--2--4--------| x4
E|-0~----------5~-----2--------|

Verse
e|---------------------------------------|
B|---------------------------------------|
G|---------------------------------------|
D|---------------------------------------|
A|--7--7~--2-4-2-5--4--2~-2-4-2----------| x4
E|---------------------------------------|

e|------------------------|
B|------------------------|
G|------------------------|
D|-2-2-2-2-2-2-2-2-4------|
A|-0-0-0-0-0-0-0-0-2------|
E|------------------------|

Chorus
e|-----------------------------|
B|-----------------------------|
G|-----------------------------|
D|-----4~--7~------4-----------|
A|-2~--2~--5~--7~--2--4--------| x4
E|-0~----------5~-----2--------|

e|-----------------------------|
B|-5~--------------------------|
G|-4~--------------------------|
D|-0~--------------------------|
A|-0---------------------------|
E|-0---------------------------|

e|------------------------------------------------|
B|----------------12-12--15-15--12-12-------------|
G|-44--99--12-12--*--*---*--*---*--*---12-12--99--|
D|-**--**--*--*------------------------*--*---**--|
A|------------------------------------------------| x4
E|------------------------------------------------|

* = slightly palm mute


   8 times,  6  ,   2
e|-----------------------------|
B|-99999999-888888-10-10-------|
G|-----------------------------|
D|-----------------------------|
A|-----------------------------| x3
E|-----------------------------|

    8 times,  7
e|-----------------------------|
B|-99999999-8888888------------|
G|-----------------------------|
D|-----------------------------|
A|-----------------------------|
E|-----------------------------|

Verse
e|-----------------------------|
B|-----------------------------|
G|-----------------------------|
D|-----4~--7~------4-----------|
A|-2~--2~--5~--7~--2--4--------| x4
E|-0~----------5~-----2--------|

e|-----------------------------|
B|-----------------------------|
G|-----------------------------|
D|-----4~--7~------4~----------|
A|-2~--2~--5~--7~--2~--4~------| x4
E|-0~----------5~------2~------|

Ending
e|-----------------------------|
B|-5~--------------------------|
G|-4~--------------------------|
D|-0~--------------------------|
A|-0---------------------------|
E|-0---------------------------|

Tap to rate this tab
 
# A B C D E F G H I J K L M N O P Q R S T U V W X Y Z