Song name
# A B C D E F G H I J K L M N O P Q R S T U V W X Y Z

The Crowns - Let It Go tab

Song:  Let It Go
Artist:  The Crowns
Tabbed by: enonx1
Email: enonx1@gmail.com

This one's by an up and coming band, The Crowns, from Amsterdam, who have a pretty 
big internet fan base. Their debut album is coming out soon.

Tuning: EADGBe

Intro/Verse - bar frets w/ index finger (x12)

0:00
e|--------11-11------------------------------------------------|
B|--------------11-11------------------------------------------|
G|------------------------9-9---------8-8----------------------|
D|----------------------------9-9-8-8--------------------------|
A|--11-11-------------9-9--------------------------------------|
E|-------------------------------------------------------------|

After 8 times of the Intro guitar, Guitar 2 comes in: (x4)

0:26
e|---------12-12--11-11--------12-12--11-11--9-9--11-11--------|
B|--12-12---------------12-12----------------------------------|
G|-------------------------------------------------------------|
D|-------------------------------------------------------------|
A|-------------------------------------------------------------|
E|-------------------------------------------------------------|

Chorus (x4)

0:39
e|-------------------------------------------------------------|
B|-------------------------------------------------------------|
G|-------------------------------------------------------------|
D|-------------------------------------------------------------|
A|-6-6-6-6-6-6-6-6-9-9-9-9-9-9-9-9-11-11-11-11-11-11-11-11-----|
E|-4-4-4-4-4-4-4-4-7-7-7-7-7-7-7-7--9--9--9--9--9--9--9--9-----|

e|-------------------------------------------------------------|
B|-------------------------------------------------------------|
G|-------------------------------------------------------------|
D|-------------------------------------------------------------|
A|-14-14-14-14-13-13-13-13-------------------------------------|
E|-12-12-12-12-11-11-11-11-------------------------------------|

Guitar 2 ends Chorus with:

e|-------------------------------------------------------------|
B|-------------------------------------------------------------|
G|-------------------------------------------------------------|
D|-------------------------------------------------------------|
A|-6~----------------------------------------------------------|
E|-4~----------------------------------------------------------|

Verse (x12)

1:05
e|--------11-11------------------------------------------------|
B|--------------11-11------------------------------------------|
G|------------------------9-9---------8-8----------------------|
D|----------------------------9-9-8-8--------------------------|
A|--11-11-------------9-9--------------------------------------|
E|-------------------------------------------------------------|

Again, after the Verse is repeated 8 times, Guitar 2 comes in: (x4)

1:24
e|---------12-12--11-11--------12-12--11-11--9-9--11-11--------|
B|--12-12---------------12-12----------------------------------|
G|-------------------------------------------------------------|
D|-------------------------------------------------------------|
A|-------------------------------------------------------------|
E|-------------------------------------------------------------|

Chorus (x4)

1:37
e|-------------------------------------------------------------|
B|-------------------------------------------------------------|
G|-------------------------------------------------------------|
D|-------------------------------------------------------------|
A|-6-6-6-6-6-6-6-6-9-9-9-9-9-9-9-9-11-11-11-11-11-11-11-11-----|
E|-4-4-4-4-4-4-4-4-7-7-7-7-7-7-7-7--9--9--9--9--9--9--9--9-----|

e|-------------------------------------------------------------|
B|-------------------------------------------------------------|
G|-------------------------------------------------------------|
D|-------------------------------------------------------------|
A|-14-14-14-14-13-13-13-13-------------------------------------|
E|-12-12-12-12-11-11-11-11-------------------------------------|

Guitar 2 ends Chorus with:

e|-------------------------------------------------------------|
B|-------------------------------------------------------------|
G|-------------------------------------------------------------|
D|-------------------------------------------------------------|
A|-6~----------------------------------------------------------|
E|-4~----------------------------------------------------------|

Bridge (x4)

2:09
e|----12-12-12-11-11-11-11----12-12-12-11-11-11-11-------------|
B|-12-*--*--*--*--*--*--*--12-*--*--*--*--*--*--*--------------|
G|-*-----------------------*-----------------------------------|
D|-------------------------------------------------------------|
A|-------------------------------------------------------------|
E|-------------------------------------------------------------|

e|-------------------------------------------------------------|
B|-12-12-12-12-14-14-14-14-14-12-12-12-12-12-12-12-12----------|
G|-*--*--*--*--*--*--*--*--*--*--*--*--*--*--*--*--*-----------|
D|-------------------------------------------------------------|
A|-------------------------------------------------------------|
E|-------------------------------------------------------------|

* = palm mute

Chorus (x4)

2:34
e|-------------------------------------------------------------|
B|-------------------------------------------------------------|
G|-------------------------------------------------------------|
D|-------------------------------------------------------------|
A|-6-6-6-6-6-6-6-6-9-9-9-9-9-9-9-9-11-11-11-11-11-11-11-11-----|
E|-4-4-4-4-4-4-4-4-7-7-7-7-7-7-7-7--9--9--9--9--9--9--9--9-----|

e|-------------------------------------------------------------|
B|-------------------------------------------------------------|
G|-------------------------------------------------------------|
D|-------------------------------------------------------------|
A|-14-14-14-14-13-13-13-13-------------------------------------|
E|-12-12-12-12-11-11-11-11-------------------------------------|

Guitar 2 ends song with:

3:00
e|-------------------------------------------------------------|
B|-------------------------------------------------------------|
G|-------------------------------------------------------------|
D|-------------------------------------------------------------|
A|-6~----------------------------------------------------------|
E|-4~----------------------------------------------------------|

Great song, easy to play bun fun to rock out to, enjoy!
Tap to rate this tab
# A B C D E F G H I J K L M N O P Q R S T U V W X Y Z