Song name
# A B C D E F G H I J K L M N O P Q R S T U V W X Y Z

The Damage Manual - I Am War Again tab

http://www.invisiblerecords.com/damagemanual/

"I Am War Again" - The Damage Manual (From "Limited Edition")
Tabbed by Dan Heed (otherwise known as The Human Lobster).

Tuning: Drop-C (CGCFAD)

Bridge (x1):
D----------------------------------------|
A----------------------------------------|
F----------------------------------------|
C-6--3--6--3--1-1-3-3--6--3--6--3-8--6-6-|
G-6--3--6--3--1-1-3-3--6--3--6--3-8--6-6-|
C-6--3-----------------6--3--------------|

Verse (x2): (You must've seen me miles away/Cannon weight on a steel brake...)
D-------------------------------------|
A-------------------------------------|
F-------------------------------------|
C-6--3--15---11-11--6--3--15---16-15--|
G-6--3--15---11-11--6--3--15---16-15--|
C-6--3--15---11-11--6--3--15---16-15--|

Bridge (x1)

Verse (x2)

Intro/Chorus (x2): (Dead inside, the midnight hits/In slow motion, I am war again...)
D---------------------------------------------------------------------------------------|
A---------------------------------------------------------------------------------------|
F-13-13-13-13--8-10-13-8--11-11-11-11--8-10-11-8--10-10-10-10--8-10-10-8--4-5-5-5-5-8-5-|
C---------------------------------------------------------------------------------------|
G---------------------------------------------------------------------------------------|
C---------------------------------------------------------------------------------------|

[Break]

Intro/Chorus (x2)

Bridge (x1)

Verse (Palm-Muted x2)

Bridge (x1)

Verse (x2)

Intro/Chorus (x4)

[Break]

Bridge (x4)
Tap to rate this tab
# A B C D E F G H I J K L M N O P Q R S T U V W X Y Z