The Damned Things - Bad Blood tab

The Damned Things-Bad Blood
INTRO
e-------------------------------------|
b-------------------------------------|
g-------------------------------------| X4
D----------7-6----7-6-----7-6---6h7p6-|
A-12/--4-4----4-4-----9-9-----7-------|
E-------------------------------------|

Through the verse it's just bass for the first four lines then:
GTR 1 VERSE (riff 1)
e--------------------------------------------|     
b--------------------------------------------|     
g--------------------------------------------|     
D-66-9-11-6-6-666-666-66-9-11-66-6-1414-1313-| X2  
A-44-7-9--4-4-444-444-44-7-9--44-4-1212-1111-|     
E--------------------------------------------|     
GTR 2
e-9~-|
b----|
g----| X2
D----|
A----|
E----|
Then PRE (riff 2):
e-----------------------------------|
b-----------------------------------|
g-----------------------------------|
D-6-6666666666666-------------------|
A-4-4444444444444-6-6666666666666-9-|
E-----------------4-4444444444444-7-|
PM  .............   .............
Then CHORUS (riff 3):
e--------------------------------------------------|
b--------------------------------------------------|
g--------------------------------------------------|
D-66-4-6-4-6-9-11-9-6------------------------------| X2 
A-44-2-4-2-4-7-9--7-4--777777777777-6-666666666666-|     
E----------------------555555555555-4-444444444444-|
Second time through play:
e-------------------------------|
b-------------------------------|
g-------------------------------|
D----------------4-444444444444-|
A-2-222222222222-2-222222222222-|
E-0-000000000000----------------|
Instead.
Then play intro twice when he sings, "tonight we bring our bodies.."
GTR 1 play riff 1 X4
GTR 2:
e-----9--------------------|
b-7-9---9-7-9--------------|
g-------------9-6----------|
D-----------------9-6---6~-|  X2
A---------------------9----|
E--------------------------|
Then play PRE (riff 2) and CHORUS (riff 3) twice Then play:
GTR 1 & GTR 2
e------------------|
b------------------|
g------------------|  X2 (GTR 2 play X8)
D-6~---------------|
A-4~-6h7~-2~-4~-6~-|
E----4h5~-0~-2~-4~-|
Then GTR 1 (I'm not 100% on this)
e--------------------------------------------------------------------------|
b--------------------------------------------------------------------------|
g--------------------------------------------------------------------------|
D-6p4---6p4---6p4---6p4----------------------------9p7---9p7---9p7---9p7---|
A----6p4---6p4---6p4---6p4-7p5---7p5---7p5---7p5------9p7---9p7---9p7---9p7|
E-----------------------------7p5---7p5---7p5---7p5------------------------|

e-------------------------------|
b-------------------------------|
g-------------------------------|
D-11p9----11p9----13p11-----13~-| X4
A-----11p9----11p9-----13p11----|
E-------------------------------|
Then play Riff 3 twice and Intro X4 and end with:
e----------|
b----------|
g----------|
D-9-11-9-6-|
A-7-9--7-4-|
E----------|
If you have any queries or corrections be sure to email me-viperbite@westnet.com.au
Happy tabbing!
Tap to rate this tab
 
# A B C D E F G H I J K L M N O P Q R S T U V W X Y Z