Guitaretab - guitar tabs
Song name
# A B C D E F G H I J K L M N O P Q R S T U V W X Y Z

The Damnwells - Come To Me tab

The Damnwells
Come To Me

Tuning: Whole step down


Verse

e|---3---------3-----3-----3-0-------2-2-3----|
B|---0---------1-----1-----1-1-------3-3-3----|
G|---0---------0-----0-----2-2-------2-2-2----|
D|---0-----0---2-----0-----2-2---0---0-0-0----|
A|---x-0h2---3-3---2-2---0-0-0----------------|
E|-3-3----------------------------------------|


Chorus
    
e|--0--0-0-0ó--3--3-3-----3-----3-----3-0---|
B|--0--0-0-0ó--0--0-1-----1-----1-----1-1---|
G|--0--0-0-0---0--0-0-----0-----0-----2-2---|
D|--2--2-2-2---0--0-0-----2-----0-----2-2---|
A|--2--2-2-2---x--x-2---3-3---2-2---0-0-0---|
E|--0--0-0-0---3--3-3-----------------------|

e|--0--0-0-0ó--3--3-3-----3-----3-----3-0---|
B|--0--0-0-0ó--0--0-0-----1-----1-----1-1---|
G|--0--0-0-0---0--0-0-----0-----0-----2-2---|
D|--2--2-2-2---0--0-0-----2-----0-----2-2---|
A|--2--2-2-2---x--x-x---3-3---2-2---0-0-0---|
E|--0--0-0-0---3--3-3-----------------------|
[ Tab from: http://www.guitaretab.com/t/the-damnwells/178494.html ]
e|--0--0-0-0ó--3--3-3-----3-3-3---2...----3----3----0----2----3--------|
B|--0--0-0-0ó--0--0-1-----1-1-1---3...----0----0----0----3----1--------|
G|--0--0-0-0---0--0-0-----0-0-0---2...----0----0----0----2----0----0---|
D|--2--2-2-2---0--0-0-----2-2-2---0...----0----0----2--0-0----2-0h2----|
A|--2--2-2-2---x--x-2---3-3-3-3-----------x----x----2-------3-3--------|
E|--0--0-0-0---3--3-3-------------------3-3--2-2--0-0------------------|

e|---3----3----0----2----3-x-3-------|
B|---0----0----0----3----1-x-1-------|
G|---0----0----0----2----0-x-0----0--|   
D|---0----0----2--0-0----2-x-2-0h2---|
A|---x----x----2-------3-3-x-3-------|
E|-3-3--2-2--0-0---------------------|


Bridge

Bm  C  Em  D  C
Bm  C  D  Bm/D*

*Bm/d
  2
  3
  4
  0
  x
  x


Lyrics

Crawl to me and Iíll crawl to you
And in the middle we meet
You drink from me and I swallow you
Cause in my heart the rent is cheap

Iíve been stayin up way too late
You wanna love me girl, donít hesitate
Iíve been stayin up and Iíve been waking up
I pray this world will see me now as you do
Iíve never looked so good

I crawl through this city and Iím lookin for you
I chase the darkened streets
I call you name darling cause itís all I can do
I sing to you my sweet

Chorus

And if thereís a reason to run
Will you run right back to me?
And if thereís nowhere to go
Will you come...come to me
Come to me

Chorus
Related for Come To Me tab