Song name
# A B C D E F G H I J K L M N O P Q R S T U V W X Y Z

The Damnwells - Like It Is Acoustic tab

The Damnwells
Like it is (Acoustic Youtube Version)

Capo 3


Intro:
               	                              \***G fill/
e|-------------------------------------------------------|
B|----0--0--0-0---0-0------------0-0--0-0----0-----------|
G|----0-0---0-----2---2/4-2-0----0--0-0------0-----------|    x2
D|----2-----2---0-0--------------2----2------0----0------|
A|--3-3-----3-----0------------2-2----2------2-0h2-2-0---|
E|-----------------------------------------3-3-----------|


Verse/Chorus:

e|----------------------------------------------------|
B|----0-0---0-0----0-0--0-0----0-0--0-0----0-0--0-0---|
G|----0--0--0------2--0-2------0--0-0------0--0-0-----|
D|----2-----2----0-0----0------2----2------0----0-----|
A|--3-3-----3------0----0----2-2----2------2----2-----|
E|---------------------------------------3-3----3-----|

He throws in the ***G fill usually after the second line of each verse and at the end of
chorus


Bridge:
*comes in at the end of the second chorus following the E ch
*2nd time through
e|----------------------------------------------------------------|--------------|
B|----0-0---------0-0--0-0----0-0------------0-0--0-0----0-0--0-0-|---0-0--0-3---|
G|----0--0--------0--0-0------2---2/4-2-0----0--0-0------0--0-0---|---0--0-0-----|     x2
D|----2-----------2----2----0-0--------------2----2------2----2---|---2----2-----|
A|--2-2-----0-2-3-3----3------0------------2-2----2----2-2----2---|-2-2----2-----|
E|----------------------------------------------------------------|--------------|
Tap to rate this tab
 
# A B C D E F G H I J K L M N O P Q R S T U V W X Y Z