Song name
# A B C D E F G H I J K L M N O P Q R S T U V W X Y Z

The Damnwells - Feast Of Hearts tab

"Feast of Hearts" by the Damnwells

Standard Tuning/Capo 2

These are just the chords, listen for the changes.


Verse
e --3---3---3--3---3------------|
B --3---3---3--3---3------------|
G --0---0---0--2---0------------|
D --0---0---2------0------------|
A --0---3---2------3------------|
E --3---------------------------|

Chorus
e --3---3---3-------------------|
B --3---3---3-------------------|
G --0---2---0-------------------|
D --0-------0-------------------|
A --0-------3-------------------|
E --3---------------------------|

Bridge
e --3---3-----------------------|
B --3---3-----------------------|
G --2---0-----------------------|
D --2---0-----------------------|
A ------3-----------------------|
E ------------------------------|
Tap to rate this tab
# A B C D E F G H I J K L M N O P Q R S T U V W X Y Z