Song name
# A B C D E F G H I J K L M N O P Q R S T U V W X Y Z

The Damnwells - Death Defier tab

"Death Defier" by The Damnwells

Standard Tuning/Capo 2

Intro/Verse/Outro
e --3---3-----------------------|
B --3---3-----------------------|
G --0---0-----------------------|
D --0---0-----------------------|
A --0---3-----------------------|
E --3---------------------------|

Pre-chorus
e --3---3---3---3---3------------|
B --3---3---3---3---3------------|
G --0---2---0---0---2------------|
D --2-------0---2----------------|
A --2-------3---2----------------|
E -------------------------------|


Chorus
e --3---3-------3---3--------------|
B --3---3-------3---3--------------|
G --0---0-(x2)--0---2-(x3)---------|
D --0---0-------2------------------|
A --0---3-------2------------------|
E --3------------------------------|


Bridge
e --3---3-------3---3-------3---3-------3---3---3-------3--3----------|
B --3---3-------3---3-------3---3-------3---3---3-------3--3----------|
G --0---0-(x2)--0---2-(x2)--0---0-(x2)--0---2---0-(x2)--0--2-(x2)-----|
D --0---0-------2-----------0---0-------2-------0-------2-------------|
A --0---3-------2-----------0---3-------2-------3-------2-------------|
E --3-----------------------3-----------------------------------------|
Tap to rate this tab
# A B C D E F G H I J K L M N O P Q R S T U V W X Y Z