Song name
# A B C D E F G H I J K L M N O P Q R S T U V W X Y Z

The Damnwells - No One Listens To The Band Anymore tab

"No One Listens to the Band Anymore" by The Damnwells

Half-step down


Intro/Verse (First part repeats a few times, then play second part)
eb --3--3-x---3--3--3------------|
Bb --3--3-x---3--3--3------------|
Gb --0--0-x---0--0--2------------|
Db --0--0-x---0--2---------------|
Ab --3--2-x---3--2---------------|
Eb -------x----------------------|


Chorus
eb --3---3---3------------------|
Bb --3---3---3------------------|
Gb --0---2---0------------------|
Db --2-------0------------------|
Ab --2-------3------------------|
Eb -----------------------------|




Tap to rate this tab
 
# A B C D E F G H I J K L M N O P Q R S T U V W X Y Z