Song name
# A B C D E F G H I J K L M N O P Q R S T U V W X Y Z

The Dan Band - Candy Shop chords

Highlighted       Show chord diagrams
-------------------------------------------------------------------------------
			     Candy Shop - The Dan Band
-------------------------------------------------------------------------------
Tabbed by:Sam Edwardes

This is a fun song to impress the ladies with!

Tuning:Standard-Capo 1st

Chords Used:

      Em       Am        B7       C      Dsus2
e|----0--------0---------2--------0--------0---------------------------------|
B|----0--------1---------0--------1--------3---------------------------------|
G|----0--------2---------2--------0--------2---------------------------------|
D|----2--------2---------1--------2--------0---------------------------------|
A|----2--------0---------2--------3------------------------------------------|
E|----0--------0-------------------------------------------------------------|

Em
I'll take you to the candy shop
Am
I'll let you lick the lollipop
B7
Go 'head girl, don't you stop
C                           Dsus2
Keep going 'til you hit the spot (woah)

                Em
You can have it your way, how do you want it
         Am
You gon' back that thing up or should i push up on it
B7
Let me break it down for you now, baby it's simple
C                   Dsus2
If you be a nympho, I'll be a nympho

        Em
Got the magic stick, I'm the love doctor
          Am
Have your friends teasing you 'bout how sprung I gotcha
B7
Wanna show me how you work it baby, no problem
C                      Dsus2            
Get on top then get to bouncing round
      
      Em
I'm a seasons vet when it come to this shit
          Am
After you work up a sweat you can play with the stick
B7
I'm trying to explain baby the best way I can
C                         Dsus2
I melt in your mouth girl fucking not in your hands 
Tap to rate this tab
 
# A B C D E F G H I J K L M N O P Q R S T U V W X Y Z