Song name
# A B C D E F G H I J K L M N O P Q R S T U V W X Y Z

The Dan Band - Gloria tab

gloria



the Dan band



TRANSCRIBED BY RUDY GUZMAN



guzman_84@hotmail.com




                                                x2
e:-3-3-2--3-3-2--3-3-2----3-3-3--3-3-3--3-3-3-3---|
B:-3-3-3--3-3-3--3-3-3-3--3-3-3--3-3-3--3-3-3-3-3-|
G:-2-2-2--2-2-2--2-2-2-0--0-0-0--0-0-0--0-0-0-0-0-|
D:-0-0-0--0-0-0--0-0-0-0--0-0-0--0-0-0--0-0-0-0-0-|
A:------------------------2-2-2--2------2---------|
E:------------------------3-3-3--3------3---------|
  
  You're always on the run now Running after... 
e:-3-3-2--3-3-2--3-3-2----3-3-3--3-3-3--3-3-3-3---|
B:-3-3-3--3-3-3--3-3-3-3--3-3-3--3-3-3--3-3-3-3-3-|
G:-2-2-2--2-2-2--2-2-2-0--0-0-0--0-0-0--0-0-0-0-0-|
D:-0-0-0--0-0-0--0-0-0-0--0-0-0--0-0-0--0-0-0-0-0-|
A:------------------------2-2-2--2------2---------|
E:------------------------3-3-3--3------3---------|

   You really don't remember...
e:-0------------------2----------3-------------------2-------3-|
B:-0--------2---------3----------3----------1--------3-------3-|
G:-0--------2---------2----------0----------0--------2-------0-|
D:-2--------2---------0----------0----------2--------0-------0-|
A:-2--------0--------------------2----------3----------------2-|
E:-0-----------------------------3---------------------------3-|

e:-3-3-3-3-3-3-3-3-3-|
B:-3-3-3-3-3-3-3-3-3-|
G:-0-0-0-0-0-0-0-0-0-|
D:-0-0-0-0-0-0-0-0-0-|
A:-2-2-2-2-2-2-2-2-2-|
E:-3-3-3-3-3-3-3-3-3-|


  gloria how's it going to go down...
e:-3-3-2--3-3-2--3-3-2----3-3-3--3-3-3--3-3-3-3---|
B:-3-3-3--3-3-3--3-3-3-3--3-3-3--3-3-3--3-3-3-3-3-|
G:-2-2-2--2-2-2--2-2-2-0--0-0-0--0-0-0--0-0-0-0-0-|
D:-0-0-0--0-0-0--0-0-0-0--0-0-0--0-0-0--0-0-0-0-0-|
A:------------------------2-2-2--2------2---------|
E:------------------------3-3-3--3------3---------|

   you much i really don't remember...
e:-0------------------2----------3-------------------2-------3-|
B:-0--------2---------3----------3----------1--------3-------3-|
G:-0--------2---------2----------0----------0--------2-------0-|
D:-2--------2---------0----------0----------2--------0-------0-|
A:-2--------0--------------------2----------3----------------2-|
E:-0-----------------------------3---------------------------3-|

e:-3-3-3-3-3-3-3-3-3-|
B:-3-3-3-3-3-3-3-3-3-|
G:-0-0-0-0-0-0-0-0-0-|
D:-0-0-0-0-0-0-0-0-0-|
A:-2-2-2-2-2-2-2-2-2-|
E:-3-3-3-3-3-3-3-3-3-|

   gloria, gloria, glori glori gloria           x2
e:-3-3-2--3-3-2--3-3-2----3-3-3--3-3-3--3-3-3-3---|
B:-3-3-3--3-3-3--3-3-3-3--3-3-3--3-3-3--3-3-3-3-3-|
G:-2-2-2--2-2-2--2-2-2-0--0-0-0--0-0-0--0-0-0-0-0-|
D:-0-0-0--0-0-0--0-0-0-0--0-0-0--0-0-0--0-0-0-0-0-|
A:------------------------2-2-2--2------2---------|
E:------------------------3-3-3--3------3---------|

e:-3-3-3-3-3-3-3-3-3-|
B:-3-3-3-3-3-3-3-3-3-|
G:-0-0-0-0-0-0-0-0-0-|
D:-0-0-0-0-0-0-0-0-0-|
A:-2-2-2-2-2-2-2-2-2-|
E:-3-3-3-3-3-3-3-3-3-|

e:-2----------3-------------------2-------3-|
B:-3----------3----------1--------3-------3-|
G:-2----------0----------0--------2-------0-|
D:-0----------0----------2--------0-------0-|
A:------------2----------3----------------2-|
E:------------3---------------------------3-|

e:-3-3-3-3-3-3-3-3-3-|
B:-3-3-3-3-3-3-3-3-3-|
G:-0-0-0-0-0-0-0-0-0-|
D:-0-0-0-0-0-0-0-0-0-|
A:-2-2-2-2-2-2-2-2-2-|
E:-3-3-3-3-3-3-3-3-3-|



hillo son mex

29/11/12
Tap to rate this tab
 
# A B C D E F G H I J K L M N O P Q R S T U V W X Y Z