Song name
# A B C D E F G H I J K L M N O P Q R S T U V W X Y Z

The Dangerous Summer - Reach For The Sun tab

-------------------------------------------------------------------------------
			     REACH FOR THE SUN - The Dangerous Summer
-------------------------------------------------------------------------------
Tabbed by: JimmyB
Email: bakerfromsbk@googlemail.com

Tuning: Standard Tuning

Ok this is the lead parts only. 


Verse 1: (With delay)

"I wrote a song about war..."
e|---------------------------------------------------------------------------------------|
B|---------8-8-8--6-----------8-8-8--6-----------8-8-8--6----11-11-11--6-6-6--8-8-8------|
G|--5-5-5--------------5-5-5--------------5-5-5------------------------------------------| 
D|---------------------------------------------------------------------------------------|
A|---------------------------------------------------------------------------------------|
E|---------------------------------------------------------------------------------------|

PLAY TWICE

First 'Chorus:' Again, with delay.

" I heard there was a song inside the earth..." (Lyrics are probably wrong there)
e|----------------------------|
B|-----6-----6-----6------6---|
G|--5-----5-----5-----5-------|  Listen to the song for the correct amount of times to play this
D|----------------------------|
A|----------------------------|
E|----------------------------|

Verse 2: (With delay)

e|---------------------------------------------------------------------------------------|
B|---------8-8-8--6-----------8-8-8--6-----------8-8-8--6----11-11-11--6-6-6--8-8-8------|
G|--5-5-5--------------5-5-5--------------5-5-5------------------------------------------| 
D|---------------------------------------------------------------------------------------|
A|---------------------------------------------------------------------------------------|
E|---------------------------------------------------------------------------------------|

Play twice

Chorus:


e|------------------------------------------5----5----5----5----5----5----5----5--------------|
B|--6----6----6----6----8----8----8----8------------------------------------------------------|
G|----5----5----5----5----5----5----5----5----5----5----5----5----5----5----5----5------------|
D|--------------------------------------------------------------------------------------------|
A|--------------------------------------------------------------------------------------------|
E|--------------------------------------------------------------------------------------------|


e|------------------------------------------8----8----8----8----8----8----8----8--------------|
B|--6----6----6----6----8----8----8----8------------------------------------------------------|
G|----5----5----5----5----5----5----5----5----5----5----5----5----5----5----5----5------------|
D|--------------------------------------------------------------------------------------------|
A|--------------------------------------------------------------------------------------------|
E|--------------------------------------------------------------------------------------------|

Play chorus twice

Bridge:

"I screamed so loud because that's exactly how i felt..."
e|---------------------------------------------------------------------------|
B|----6-6-6-5-5-5------------------------------------------------------------|
G|----------------5-5-5------5-----5-------------------------------5---5-----|
D|-----------------------3-3---3-3---3-5-5-7-7-7-7-7-7-7-7-5-5-5-5---5---5---|
A|---------------------------------------------------------------------------|
E|---------------------------------------------------------------------------|

Play that bit three times then play:

e|-----------------------------------------------------------|
B|---6-6-6-6-6-6-6-6-6-6-6-6-8-8-8-8-8-8-8-8-8-8-8-8-8-8-8---|
G|-----------------------------------------------------------|
D|---3-3-3-3-3-3-3-3-3-3-3-3-5-5-5-5-5-5-5-5-5-5-5-5-5-5-5---|
A|-----------------------------------------------------------|
E|-----------------------------------------------------------|


Chorus:


e|------------------------------------------5----5----5----5----5----5----5----5--------------|
B|--6----6----6----6----8----8----8----8------------------------------------------------------|
G|----5----5----5----5----5----5----5----5----5----5----5----5----5----5----5----5------------|
D|--------------------------------------------------------------------------------------------|
A|--------------------------------------------------------------------------------------------|
E|--------------------------------------------------------------------------------------------|


e|------------------------------------------8----8----8----8----8----8----8----8--------------|
B|--6----6----6----6----8----8----8----8------------------------------------------------------|
G|----5----5----5----5----5----5----5----5----5----5----5----5----5----5----5----5------------|
D|--------------------------------------------------------------------------------------------|
A|--------------------------------------------------------------------------------------------|
E|--------------------------------------------------------------------------------------------|

Repeat till the end of the song.

Thanks. Im 90% sure this is correct; a bit in the bridge might be slightly different but i can't 
hear it properly over the vocal and the rhythm guitar. 

Enjoy.

| /  slide up
| \  slide down
| h  hammer-on
| p  pull-off
| ~  vibrato
| +  harmonic
| x  Mute note
===============================================================================
Tap to rate this tab
# A B C D E F G H I J K L M N O P Q R S T U V W X Y Z