Song name
# A B C D E F G H I J K L M N O P Q R S T U V W X Y Z

The Dangerous Summer - Symmetry tab

Symmetry - The Dangerous Summer



Part 1: Intro/Chorus

Guitar 1
e|--------------------------------------------------------------------------|
B|--------------------------------------------------------------------------|
G|--------------------------------------------------------------------------|
D|-222-4444-2222-0000-2222--------------------------------------------------|
A|-222-4444-2222-0000-2222--------------------------------------------------|
D|-222-4444-2222-0000-2222--------------------------------------------------|

Guitar 2
e|--------------------------------------------------------------------------|
B|---12-10---10---12---10-12---12---12---12---------------------------------|
G|-9-------9----9----9-------9----9----9----9-------------------------------|
D|--------------------------------------------------------------------------|
A|--------------------------------------------------------------------------|
D|--------------------------------------------------------------------------|

Part 2: Verse

Guitar 1
e|--------------------------------------------------------------------------|
B|--------------------------------------------------------------------------|
G|--------------------------------------------------------------------------|
D|-11-/7~---22-00~----------------------------------------------------------|
A|-7--/4~---22-00~----------------------------------------------------------|
D|-7--/4~---22-00~----------------------------------------------------------|

Guitar 2: 1st and 2nd Verse
e|--------------------------------------------------------------------------|
B|--------------------------------------------------------------------------|
G|--------------------------------------------------------------------------|
D|-11/7~--7/9-9-9-7-7-------------------------------------------------------|
A|----------------------7-7-------------------------------------------------|
D|--------------------------------------------------------------------------|

Guitar 2: 2nd Verse 
e|---------------------------------------------------------------------------|
B|---------------------------------------------------------------------------|
G|----4----4----4---4------2----2----2---2-----------------------------------|
D|-22---22---22---2---2-00---00---00---0---0----------------------------------|
A|---------------------------------------------------------------------------|
D|---------------------------------------------------------------------------|

Part 3: Bridge

Guitar 1
e|--------------------------------------------------------------------------|
B|--------------------------------------------------------------------------|
G|--------------------------------------------------------------------------|
D|--0-9999-4-7777-0~--------------------------------------------------------|
A|--0-9999-4-7777-0~--------------------------------------------------------|
E|--0-9999-4-7777-0~--------------------------------------------------------|

Guitar 2
e|--------------------------------------------------------------------------|
B|------121212-101010-----141414-12121212-----------------------------------|
G|--999---------------999---------------------------------------------------|
D|--------------------------------------------------------------------------|
A|--------------------------------------------------------------------------|
E|--------------------------------------------------------------------------|

In order the song goes like:
Part 1
Part 2
Part 1
Part 2 
Part 3
Part 1
Part 1
Part 1

Thats pretty much it. Just give the song a listen and im sure youll figure it all out. Enjoy!
Tap to rate this tab
# A B C D E F G H I J K L M N O P Q R S T U V W X Y Z