Song name
# A B C D E F G H I J K L M N O P Q R S T U V W X Y Z

The Dangerous Summer - The Permanent Rain tab

-------------------------------------------------------------------------------
			     The Permanent Rain - The Dangerous Summer
-------------------------------------------------------------------------------
Tabbed by: Jordan
Not sure if its 100% but its a solid outline. Great band. www.myspace.com/dangeroussummer

Tuning: D Tuning

Intro: Guitar 1 (delay, palm muted)
e|----------------------------------------------------------------------------|
B|----------------------------------------0-----------------------------------|
G|-------0-----------0---------7----------------------------------------------|
D|----10----10----10---10---10---10----10---10--------------------------------|
A|--8-----------0---------10---------10---------------------------------------|
E|----------------------------------------------------------------------------|

e|--------------------------------------------------------------------------|
B|--------------------------------------------------------------------------|
G|-----0--------0---------7----7h9------------------------------------------|
D|--10---10--10---10---10---10-----10---10----------------------------------|
A|-8--------0--------10---------------10------------------------------------|
E|--------------------------------------------------------------------------|
Intro & Verse: Guitar 2
e|--------------------------------------------------------------------------|
B|--------------------------------------------------------------------------|
G|-17-x-x-17-17-x-x-17-17-x-x-17-x-x-17-17-x-16-16-16-----------------------|
D|--x-x-x--x--x-x-x--x--x-x-x--x-x-x--x--x-x--x--x--x------x4---------------|
A|-15-x-x-15-15-x-x-15-15-x-x-15-x-x-15-15-x-14-14-14-----------------------|
E|--------------------------------------------------------------------------|
Intro: Guitar 2 (after that ^)
e|--------------------------------------------------------------------------|
B|-----------------------------------------------20-20-20-20----------------|
G|-21-21---17-17---15-15---16-16---17-17-17-17----x--x--x--x----------------|
D|--x--x----x--x----x--x----x--x----x--x--x--x---17-17-17-17------x4--------|
A|-19-19---15-15---17-17---14-14---15-15-15-15------------------------------|
E|--------------------------------------------------------------------------|
Chorus: Both guitars
e|--------------------------------------------------------------------------|
B|--------------------------------------------------------------------------|
G|--------------------------------------------------------------------------|
D|-3-3---7-7---5-5-5-5------------------------------------------------------|
A|-3-3---7-7---5-5-5-5------------------------------------------------------|
E|-1-1---5-5---3-3-3-3------------------------------------------------------|
Chorus lead: Guitar 1 (delay, palm muted)
e|--------------------------------------------------------------------------|
B|--------------------------------------------------------------------------|
G|--------------------------------------------------------------------------|
D|--------17---17----15-14-15-----------------------------------------------|
A|--15-15---15----15--------------------------------------------------------|
E|--------------------------------------------------------------------------|

Back to verse, then at the second part of the verse guitar 2 does this:

e|--------------------------------------------------------------------------|
B|---20--x-20-\-\-----------------------------------------------------------|
G|----x--x--x-\-\-----------------------------------------------------------|
D|---17--x-17-\-\-----------------------------------------------------------|
A|--------------------------------------------------------------------------|
E|--------------------------------------------------------------------------|
Then to a chorus, with Guitar 1 playing this midway through: (delay)
e|--------------------------------------------------------------------------|
B|--20---20---20-20-18-17-18------------------------------------------------|
G|----17---17---x-----------------------------------------------------------|
D|--------------------------------------------------------------------------|
A|--------------------------------------------------------------------------|
E|--------------------------------------------------------------------------|
Bridge: Guitar 1 (palm muted)
e|--------------------------------------------------------------------------|
B|--------------------------------------------------------------------------|
G|--------------------------------------------------------------------------|
D|-17-----17---17----15-14--------------------------------------------------|
A|---15-15---15----15------15-----------------------------------------------|
E|--------------------------------------------------------------------------|
On the last time do this:
e|--------------------------------------------------------------------------|
B|---------------------20-20-20-20------------------------------------------|
G|---------x--x--x--x-------------------------------------------------------|
D|--------17-17-17-17--17-17-17-17------------------------------------------|
A|--------------------------------------------------------------------------|
E|--------------------------------------------------------------------------|
Bridge: Guitar 2
e|----------------------------------------------------------------------------|
B|----------------------------------------------------------------------------|
G|--5---5---5---5-------------------------------------------------------------|
D|--5---5---5---5-------------------------------------------------------------|
A|------3---------------------------------------------------------------------|
E|--5-------3---3-------------------------------------------------------------|

Then go back to a chorus and it slows down, after this:
e|-20-20-20--19-19-19---------------------------------------------------------|
B|---------------------20-----------------------------------------------------|
G|----------------------------------------------------------------------------|
D|----------------------------------------------------------------------------|
A|----------------------------------------------------------------------------|
E|----------------------------------------------------------------------------|
Guitar 1: (clean)
e|----------------------------------------------------------------------------|
B|------------------------------0---------------------------------------------|
G|----9---------7----------7--------------------------------------------------|
D|--10--10---10---10----10---10---10---10-------------------------------------|
A|-8-------0---------10--------------10---------------------------------------|
E|----------------------------------------------------------------------------|

Then half of the chorus and it ends.

| /  slide up
| \  slide down
| h  hammer-on
| p  pull-off
| ~  vibrato
| +  harmonic
| x  Mute note
===============================================================================
Tap to rate this tab
# A B C D E F G H I J K L M N O P Q R S T U V W X Y Z